Misc. Unsigned Bands - Sand Spider - Honky Tonk Text Guitar Tab

Learn the song with the online tablature player
Gtr I-(E A D G B E)

|-----------------|
|-----------------|
|-----------------|
|-----------------|
|---2---4---5---4-|
|-0---0---0---0---|x4

|-----------------|
|-----------------|
|-----------------|
|---2---4---5---4-|
|-0---0---0---0---|
|-----------------|x2

|-----------------|
|-----------------|
|-----------------|
|-----------------|
|---2---4---5---4-|
|-0---0---0---0---|x2

|-----------------|
|-----------------|
|-------1---2---1-|
|---4-------------|
|-2---2---2---2---|
|-----------------|

|-----------------|
|-----------------|
|-----------------|
|---2---4---5---4-|
|-0---0---0---0---|
|-----------------|

|---------------------|
|---------------------|
|---------------------|
|---------------------|
|---2---4---5---4---2-|
|-0---0---0---0---0---|

|-------------|
|-------------|
|-------------|
|-------------|
|-0-1--2~~~~--|
|-------------|

Very easy song. One that my private lessons teacher taught me.