Misc. Unsigned Bands - Saving Generations - This World Text Guitar Tab

Learn song with the online tabulature player
hey this is an original song by saving generations, one of the first songs they
made in thier history





intro
E---------------------------------------------------|
B---------------------------------------------------|
G-------7---0------5---0---------------------0------|   (as many times until
D-----5----------5------------5---0--------7--------|     the chours comes in)
A---7----------3------------5------------7----------|
e-------------------------3------------5------------|





E---------------------------------------------|
B---------------------------------------------|
G---7---------5-------------------------------|
D---5---------5-----------5------------7------|   (strummin pattern is
A---7---------3-----------5------------7------|     hard just listern to the
e-------------------------3------------5------|      song)