Misc. Unsigned Bands - Say Anything - Every Man Has His Molly Text Guitar Tab

Learn the song with the online tablature player
Say Anything is...
Max Bemis (guitar, vocals, etc.)
Coby Linder (Drums)
Kevin Seaton  Bass
Casper Adams (Guitar).

"Every Man Has A Molly" by Say Anything

e |----------------------------------|
B |-2--------------------------------|
G |-2---2----4------4----------------|
D |-2---2----4---4--4--4-------------|
A |-0---2----2---4--2--4-------------|
E |-----0--------2-----2-------------|

e |---------------------------|
B |---------------------------|
G |--7----9------11-----------|
D |--7----9------11-----------|
A |--5----7------9------------|
E |---------------------------|

e |-----------------------------------------|
B |-----------------------------------------|
G |-----------------------------------------|
D |----0-------0-------0--------------------|
A |-5------4-------2----------0-------------|
E |-------------------------2---------------|

e |------------------------------------|
B |------------------------------------|
G |-7---6---4--------------------------|
D |-7---6---4---4----------------------|
A |-5---4---2---4----------------------|
E |-------------2----------------------|