Misc. Unsigned Bands - Scenes From A Movie - Save You Text Guitar Tab

Learn the song with the online tablature player
myspace.com/scenesfromamovie

Not perfect, Most of the strumming isn't approximate try and figure it out feel free to
about anything or requests.

Intro
Guitar 1 - 2x
e|---------------------------------------------------------------------------|
B|---------------------------------------------------------------------------|
G|---------------------------------------------------------------------------|
D|7777\-7777-3333-5555-------------------------------------------------------|
A|7777\-7777-3333-5555-------------------------------------------------------|
D|7777\-7777-3333-5555-------------------------------------------------------|
Guitar 2
e|---------------------------------------------------------------------------|
B|---------------------------------------------------------------------------|
G|---------------------------------------------------------------------------|
D|7777\-7777-3333-5555-7777-10-10-9-9-7-7-5-5-2-2-7777-10-10-9-9-7-7-5-5-2-2-|
A|7777\-7777-3333-5555-7777-----------------------7777-----------------------|
D|7777\-7777-3333-5555-7777-----------------------7777-----------------------|
                            .  .  . . . . . . . .      .  .  . . . . . . . .
e|---------------------------------------------------------------------------|
B|---------------------------------------------------------------------------|
G|---------------------------------------------------------------------------|
D|3333-10-10-9-9-7-7-5-5-2-2-5555-10-10-9-9-7-7-5-5-2-2----------------------|
A|3333-----------------------5555--------------------------------------------|
D|3333-----------------------5555--------------------------------------------|
       .  . . . . . . . . .       .  .  . . . . . . . .

Pre-Chorus
Guitar 1 - 2x
e|---------------------------------------------------------------------------|
B|---------------------------------------------------------------------------|
G|---------------------------------------------------------------------------|
D|7-5-7-9-7-9-10-9-10-15-14-12-333-55555-------------------------------------|
A|7-5-7-9-7-9-10-9-10-15-14-12-333-55555-------------------------------------|
D|7-5-7-9-7-9-10-9-10-15-14-12-333-55555-------------------------------------|
Guitar 2 - 2x
e|---------------------------------------------------------------------------|
B|10-8-10-12-10-12-13-12-13-18-17-15----------------------10*----------------|
G|-----------------------------------10-10-10-12-12-12-12--------------------|
D|---------------------------------------------------------------------------|
A|---------------------------------------------------------------------------|
D|---------------------------------------------------------------------------|

Chorus
Guitar 1 + 2 - 2x
e|---------------------------------------------------------------------------|
B|---------------------------------------------------------------------------|
G|77777----------------------------------------------------------------------|
D|77777-77777-55555-7-99999-77777-55555--------------------------------------|
A|55555-77777-55555-7-99999-77777-55555--------------------------------------|
D|------77777-55555-7-99999-77777-55555--------------------------------------|

Bridge
Guitar 1
e|---------------------------------------------------------------------------|
B|---------------------------------------------------------------------------|
G|---------------------------------------------------------------------------|
D|777-101010-333-777-101010-333-777-101010-3---------------------------------|
A|777-101010-333-777-101010-333-777-101010-3---------------------------------|
D|777-101010-333-777-101010-333-777-101010-3---------------------------------|

Chorus
Guitar 1 + 2
e|---------------------------------------------------------------------------|
B|---------------------------------------------------------------------------|
G|77\--------77777-----------------------------------------------------------|
D|77\--9-7-5-77777-77777-55555-7-99999-77777-55555-9-7-5~--------------------|
A|55\--9-7-5-55555-77777-55555-7-99999-77777-55555-9-7-5~--------------------|
D|-----9-7-5-------77777-55555-7-99999-77777-55555-9-7-5~--------------------|

| /  slide up
| \  slide down
| h  hammer-on
| p  pull-off
| ~  vibrato
| +  harmonic
| x  Mute note