Misc. Unsigned Bands - Schnuffel - Kuschel Song Text Guitar Tab

Learn the song with the online tablature player
E||--5-----------5-----------|--5-----------5-----------|
B||--------6-----------6-----|--------6-----------6-----|
G||-----5-----5-----5-----5--|-----7-----7-----7-----7--|
D||--------------------------|--------------------------|
A||--------------------------|--------------------------|
E||--------------------------|--------------------------|

--0-----------0-----------|--0-----------0-----------|
--------1-----------1-----|--------1-----------1-----|
-----2-----2-----2-----2--|-----0-----0-----0-----0--|
--------------------------|--------------------------|
--------------------------|--------------------------|
--------------------------|--------------------------|

--5-----------5-----------|--5-----------5-----------|
--------6-----------6-----|--------6-----------6-----|
-----5-----5-----5-----5--|-----7-----7-----7-----7--|
--------------------------|--------------------------|
--------------------------|--------------------------|
--------------------------|--------------------------|

--0-----------0-----------|--0-----------0-----------|
--------1-----------1-----|--------1-----------1-----|
-----2-----2-----2-----2--|-----0-----0-----0-----0--|
--------------------------|--------------------------|
--------------------------|--------------------------|
--------------------------|--------------------------|

--5-----------6-----------|--5-----------3-----------|
--------5-----------6-----|--------6-----------5-----|
-----5-----5-----7-----7--|-----7-----7-----5-----5--|
--------------------------|--------------------------|
--------------------------|--------------------------|
--------------------------|--------------------------|

--5-----------5-----------|--5-----------5-----------|
--------6-----------6-----|--------6-----------6-----|
-----5-----5-----5-----5--|-----5-----5-----5-----5--|
--------------------------|--------------------------|
--------------------------|--------------------------|
--------------------------|--------------------------|

--5-----------5-----------|--5-----------5-----------|
--------6-----------6-----|--------6-----------6-----|
-----5-----5-----5-----5--|-----7-----7-----7-----7--|
--------------------------|--------------------------|
--------------------------|--------------------------|
--------------------------|--------------------------|

--0-----------0-----------|--0-----------0-----------|
--------1-----------1-----|--------1-----------1-----|
-----2-----2-----2-----2--|-----0-----0-----0-----0--|
--------------------------|--------------------------|
--------------------------|--------------------------|
--------------------------|--------------------------|

--5-----------6-----------|--5-----------3-----------|
--------5-----------6-----|--------6-----------5-----|
-----5-----5-----7-----7--|-----7-----7-----5-----5--|
--------------------------|--------------------------|
--------------------------|--------------------------|
--------------------------|--------------------------|

--1-----------1-----------|--5-----------6-----------|
--------1-----------1-----|--------5-----------6-----|
-----2-----2-----2-----2--|-----5-----5-----7-----7--|
--------------------------|--------------------------|
--------------------------|--------------------------|
--------------------------|--------------------------|

--5-----------3-----------|--1--------------------||
--------6-----------5-----|-----------------------||
-----7-----7-----5-----5--|-----------------------||
--------------------------|-----------------------||
--------------------------|-----------------------||
--------------------------|-----------------------||