Misc. Unsigned Bands - Scissorfight - Blizzards Buzzards And Bastards Text Guitar Tab

Learn the song with the online tablature player
                 BLIZZARDS, BUZZARDS, AND BASTARDS - Scissorfight
                     Mantrapping For Sport And Profit (2001)

Intro
pickup into main riff)

E|---------------------------------------------------------------------------|
B|---------------------------------------------------------------------------|
G|---------------------------------------------------------------------------|
D|---------------------------------------------------------------------------|
A|-------6-----5-----3-----5-------------------------------------------------|
E|-------6-----5-----3-----5-------------------------------------------------|
A|-0h2p0-6-----5-----3-----5-------------------------------------------------|

Main Riff (repeat once)

E|---------------------------------------------------------------------------|
B|-----------------------------(/6)-------------------------------(/6)-------|
G|---------------------------------------------------------------------------|
D|---------------------------------------------------------------------------|
A|-3--0--0--0--0--0--X-0--------/6----3--0--0--0--0--0--X-0--------/6--------|
E|-3--0--0--0--0--0--X-0--------/6----3--0--0--0--0--0--X-0--------/6--------|
A|-3--0--0--0--0--0--X-0--------/6----3--0--0--0--0--0--X-0--------/6--------|

Verse 1

E|---------------------------------------------------------------------------|
B|---------------------------------------------------------------------------|
G|---------------------------------------------------------------------------|
D|---------------------------------------------------------------------------|
A|-3--0--3--5--7--8--10--11-12--12--11--10--8--7--5--3--3--------------------|
E|-3--0--3--5--7--8--10--11-12--12--11--10--8--7--5--3--3--------------------|
A|-3--0--3--5--7--8--10--11-12--12--11--10--8--7--5--3--3--------------------|

E|---------------------------------------------------------------------------|
B|---------------------------------------------------------------------------|
G|---------------------------------------------------------------------------|
D|---------------------------------------------------------------------------|
A|-3--0--3--5--7--8--10--11-12--12--11--10--8--7--5--------------------------|
E|-3--0--3--5--7--8--10--11-12--12--11--10--8--7--5--------------------------|
A|-3--0--3--5--7--8--10--11-12--12--11--10--8--7--5--------------------------|

E|---------------------------------------------------------------------------|
B|---------------------------------------------------------------------------|
G|---------------------------------------------------------------------------|
D|---------------------------------------------------------------------------|
A|-3--0--3--5--7--8--10--11-12--12--11--10--8--7--5--3-----------------------|
E|-3--0--3--5--7--8--10--11-12--12--11--10--8--7--5--3-----------------------|
A|-3--0--3--5--7--8--10--11-12--12--11--10--8--7--5--3-----------------------|

E|---------------------------------------------------------------------------|
B|----------------------------------------------------------------(/6)-------|
G|---------------------------------------------------------------------------|
D|---------------------------------------------------------------------------|
A|-3--0--3--5--7--8--10--11-12-------------------------------------/6--------|
E|-3--0--3--5--7--8--10--11-12-------------------------------------/6--------|
A|-3--0--3--5--7--8--10--11-12-------------------------------------/6--------|

Chorus 1

E|---------------------------------------------------------------------------|
B|-----------------------------(/6)-------------------------------(/6)-------|
G|---------------------------------------------------------------------------|
D|---------------------------------------------------------------------------|
A|-3--0--0--0--0--0--X-0--------/6----3--0--0--0--0--0--X-0--------/6--------|
E|-3--0--0--0--0--0--X-0--------/6----3--0--0--0--0--0--X-0--------/6--------|
A|-3--0--0--0--0--0--X-0--------/6----3--0--0--0--0--0--X-0--------/6--------|

E|---------------------------------------------------------------------------|
B|-----------------------------(/6)-------------------------------(/6)-------|
G|---------------------------------------------------------------------------|
D|---------------------------------------------------------------------------|
A|-3--0--0--0--0--0--X-0--------/6----3--0--0--0--0--0--X-0--------/6--------|
E|-3--0--0--0--0--0--X-0--------/6----3--0--0--0--0--0--X-0--------/6--------|
A|-3--0--0--0--0--0--X-0--------/6----3--0--0--0--0--0--X-0--------/6--------|

Verse 2
play Verse 1 as written

Chorus 2
play Chorus 1 as written, continue to Solo Break

Solo Break
Guitar solo)

E|-----------------------------|-17p16p15------------------------------------|
B|-----------------------------|----------17---------------13/17-------------|
G|-----------------------------|--------------17--14-12-14-------17----------|
D|-----------------------------|---------------------------------------------|
A|-3--0--3--5--7--8--10--11-12-|---------------------------------------------|
E|-3--0--3--5--7--8--10--11-12-|---------------------------------------------|
A|-3--0--3--5--7--8--10--11-12-|---------------------------------------------|

(For 6-string)
B|-----------------------------|-22p21p20-18---------------13/17-------------|
F#|----------------------------|--------------18--15-13-15-------18----------|
D|-----------------------------|---------------------------------------------|
A|-3--0--3--5--7--8--10--11-12-|---------------------------------------------|
E|-3--0--3--5--7--8--10--11-12-|---------------------------------------------|
A|-3--0--3--5--7--8--10--11-12-|---------------------------------------------|

                               (Bass solo)

E|-----------------------------|---------------------------------------------|
B|-----------------------------|---------------------------------------------|
G|-----------------------------|---------------------------------------------|
D|-----------------------------|---------------------------------------------|
A|-3--0--3--5--7--8--10--11-12-|---------------------------------------------|
E|-3--0--3--5--7--8--10--11-12-|---------------------------------------------|
A|-3--0--3--5--7--8--10--11-12-|---------------------------------------------|

                               (Drum fill)

E|-----------------------------|---------------------------------------------|
B|-----------------------------|---------------------------------------------|
G|-----------------------------|---------------------------------------------|
D|-----------------------------|---------------------------------------------|
A|-3--0--3--5--7--8--10--11-12-|---------------------------------------------|
E|-3--0--3--5--7--8--10--11-12-|---------------------------------------------|
A|-3--0--3--5--7--8--10--11-12-|---------------------------------------------|

E|-----------------------------|---------------------------------------------|
B|-----------------------------|---------------------------------------------|
G|-----------------------------|---------------------------------------------|
D|-----------------------------|---------------------------------------------|
A|-3--0--3--5--7--8--10--11-12-|---------------------------------------------|
E|-3--0--3--5--7--8--10--11-12-|---------------------------------------------|
A|-3--0--3--5--7--8--10--11-12-|----------------------------------0h2p0------|

Interlude 1

E|---------------------------------------------------------------------------|
B|---------------------------------------------------------------------------|
G|---------------------------------------------------------------------------|
D|---------------------------------------------------------------------------|
A|-6------------------6------------------6------------0h2p0-6---5---3---5----|
E|-6------------------6------------------6------------0h2p0-6---5---3---5----|
A|-6------------0h2p0-6------------0h2p0-6------------0h2p0-6---5---3---5----|

Bridge
guitar solo)
(Repeat this phrase three times)                       (4th time)
Solo Guitar
E|----------------------------------------------------|------------------------------------------|
B|----------------------------------------------------|------------------------------------------|
G|-/13\------------10/13p10\--------------------------|-/13\------------10/13p10\----------------|
D|----------------------------------------------------|------------------------------------------|
A|----------------------------------------------------|------------------------------------------|
E|----------------------------------------------------|------------------------------------------|
A|----------------------------------------------------|------------------------------------------|
Rhythm Guitar                                         |
      |
E|----------------------------------------------------|------------------------------------------|
B|----------------------------------------------------|------------------------------------------|
G|----------------------------------------------------|------------------------------------------|
D|----------------------------------------------------|------------------------------------------|
A|-0---0-0-0-0-0---0-0-0-0-0---0-0-0-0-0---0-0-7------|-0---0-0-0-0-0---0-0-0-0-6---5---3---5----|
E|-0---0-0-0-0-0---0-0-0-0-0---0-0-0-0-0---0-0-7------|-0---0-0-0-0-0---0-0-0-0-6---5---3---5----|
A|-0---0-0-0-0-0---0-0-0-0-0---0-0-0-0-0---0-0-7------|-0---0-0-0-0-0---0-0-0-0-6---5---3---5----|

(Repeat this phrase three times)                       (4th time)
Solo Guitar
E|----------------------------------------------------|------------------------------------------|
B|----------------------------------------------------|------------------------------------------|
G|-/16\------------10/16h17\--------------------------|-/16\------------10/16p13\----------------|
D|----------------------------------------------------|------------------------------------------|
A|----------------------------------------------------|------------------------------------------|
E|----------------------------------------------------|------------------------------------------|
A|----------------------------------------------------|------------------------------------------|
Rhythm Guitar                                         |
      |
E|----------------------------------------------------|------------------------------------------|
B|----------------------------------------------------|------------------------------------------|
G|----------------------------------------------------|------------------------------------------|
D|----------------------------------------------------|------------------------------------------|
A|-0---0-0-0-0-0---0-0-0-0-0---0-0-0-0-0---0-0-7------|-0---0-0-0-0-0---0-0-0-0-6---5---3---5----|
E|-0---0-0-0-0-0---0-0-0-0-0---0-0-0-0-0---0-0-7------|-0---0-0-0-0-0---0-0-0-0-6---5---3---5----|
A|-0---0-0-0-0-0---0-0-0-0-0---0-0-0-0-0---0-0-7------|-0---0-0-0-0-0---0-0-0-0-6---5---3---5----|

Interlude 2

E|-----------------------------------------|
B|-----------------------------------(/6)--|
G|-----------------------------------------|
D|-----------------------------------------|
A|-3--0--3--5--7--8--10--11-12--------/6---|
E|-3--0--3--5--7--8--10--11-12--------/6---|
A|-3--0--3--5--7--8--10--11-12--------/6---|

Chorus 3
Play Chorus 1 as written

Verse 3
Play Verse 1 as written

Chorus 4

E|---------------------------------------------------------------------------|
B|------------------------------(/6)----------------------------------(/6)---|
G|---------------------------------------------------------------------------|
D|---------------------------------------------------------------------------|
A|-3--0--0--0--0--0--X-0----0h3p0-6----3--0--0--0--0--0--X-0----0h3p0--/6----|
E|-3--0--0--0--0--0--X-0----0h3p0-6----3--0--0--0--0--0--X-0----0h3p0--/6----|
A|-3--0--0--0--0--0--X-0----0h3p0-6----3--0--0--0--0--0--X-0----0h3p0--/6----|

E|---------------------------------------------------------------------------|
B|------------------------------(/6)-----------------------------------------|
G|---------------------------------------------------------------------------|
D|---------------------------------------------------------------------------|
A|-3--0--0--0--0--0--X-0----0h3p0-6----3--0--0--0--0--0--X-0--------0h3p0----|
E|-3--0--0--0--0--0--X-0----0h3p0-6----3--0--0--0--0--0--X-0--------0h3p0----|
A|-3--0--0--0--0--0--X-0----0h3p0-6----3--0--0--0--0--0--X-0--------0h3p0----|

Outro
(Slow down gradually)

E|---------------------------------------------------------------------------|
B|---------------------------------------------------------------------------|
G|-------------------------------------(2222222222222222222222222)-----------|
D|-------------------------------------(2222222222222222222222222)-----------|
A|-6-----5-----3-----5-----0-----------(0000000000000000000000000)-----------|
E|-6-----5-----3-----5-----0-------------------------------------------------|
A|-6-----5-----3-----5-----0-------------------------------------------------|