Misc. Unsigned Bands - Scratch Rhythm - Luna Text Guitar Tab

Learn the song with the online tablature player
                             Luna - Scratch Rhythm

These are the opening chords. You can play them in any rhythm you want, but I should
a youtube video of it up soon. This is my song that a I have worked very hard on. Lyrics
be on the video. Solo will be made shortly.

Clean
     E              D            A             Am7
e|---0---------------2----------------------------0--------------------------------|
B|---0---------------3-----------2----------------1--------------------------------|
G|---1---------------2-----------2----------------0--------------------------------|
D|---2---------------0-----------2----------------2--------------------------------|
A|---2---------------------------0-------------------------------------------------|
E|---0-----------------------------------------------------------------------------|

e|----0-------------0--------------------------------------------------------------|
B|----0-------------0--------------------------------------------------------------|
G|----1-------------1-------------6--------------5---------------------------------|
D|----2-------------0-------------x--------------x---------------------------------|
A|----2-------------2-------------4--------------3---------------------------------|
E|----0-------------0--------------------------------------------------------------|

Heavy Distortion

Play gradually faster
e|-----------------------------------------------------------------------------|
B|-------------4-------------4----4-------------3---------3-------2---------2--|
G|-------------3-------------3----3-------------3---------3-------3---------3--|
D|-----2---2---2----2----2---2----2----2---2----2---2--2--2---2---2---2--2--2--|
A|-----------------------------------------------------------------------------|
E|-----------------------------------------------------------------------------|

e|------------------------------------------------------------------------------------|
B|-----------2-----------2----2-------------------------------------------------------|
G|-----------2-----------2----2-------------------------------------------------------|
D|---2---2---2----2---2--2----2-------------------------------------------------------|
A|------------------------------------------------------------------------------------|
E|------------------------------------------------------------------------------------|

| /   slide up
| \   slide down
| h   hammer-on
| p   pull-off
| ~   vibrato
| +   harmonic
| x   Mute note
| b   Bend
| pb  Pre-bend
| br  Bend release
| pbr Pre-bend release
| brb Bend release bend