Misc. Unsigned Bands - Screaming Mechanical Brain - Boot Text Guitar Tab

Learn the song with the online tablature player
This is played during the boingy part, for lack of a better description.

 [Clean Setting]
E------------------------------------------------------------|
B------------------------------------------------------------|
G---11----11----11----11----11----11----11-11----------------|
D------------------------------------------------------------|
A----9-----9-----9-----9-----9-----9------9-9----------------|
D-0-----0-----0-----0-----0-----0-----0----------------------|

This is the main part played when Rev. John is screaming.

 [Distortion]
E-----------------------------------------------------------|
B-----------------------------------------------------------|
G-----------------------------------------------------------|
D-1--0--1--0----1--0--1--0----1--0--1--0--1--4-4-4----------|
A-1--0--1--0----1--0--1--0----1--0--1--0--1--4-4-4----------|
D-1--0--1--0----1--0--1--0----1--0--1--0--1--4-4-4----------|

This is played after the 4th time playing the above part.

E------------------------------------------------------------|
B------------------------------------------------------------|
G------------------------------------------------------------|
D-7----7-7-\-4----4-4-/-7----7-7-\-1----1-1-/----------------|
A-7----7-7-\-4----4-4-/-7----7-7-\-1----1-1-/----------------|
D-7----7-7-\-4----4-4-/-7----7-7-\-1----1-1-/----------------|