Misc. Unsigned Bands - Scrubs - Im No Superman Text Guitar Tab

Learn the song with the online tablature player
                             I'm No Superman - Scrubs (My Finale)

This is the guitar part playing at the very end of the episode "My Finale" on Scrubs.

e|---------------------------------------------------------------------------|
B|--11p9-11----9-11p9--9----11p9-11--14--9h11-9--9----11--9--11--9--11-11----|
G|---------------------------------------------------------------------------|
D|---------------------------------------------------------------------------|
A|---------------------------------------------------------------------------|
E|---------------------------------------------------------------------------|

e|---------------------------------------------------------------------------|
B|--7--9/11-14------------9-11p9--9--11-------11--7-9b--7-9b--11-------------|
G|--------------8~~~~--------------------6~-----------------------6~---------|
D|---------------------------------------------------------------------------|
A|---------------------------------------------------------------------------|
E|---------------------------------------------------------------------------|

e|---------------------------------------------------------------------------|
B|-11\7-7--9--9/11--9--7--9-----------9b--9-7----9/11--14--11p9--7~~~~-------|
G|-----------------------------6h8-------------------------------------------|
D|---------------------------------------------------------------------------|
A|---------------------------------------------------------------------------|
E|---------------------------------------------------------------------------|

| /  slide up
| \  slide down
| h  hammer-on
| p  pull-off
| ~  vibrato
| +  harmonic
| x  Mute note