Misc. Unsigned Bands - Second Time Lucky - Rememberence Song Text Guitar Tab

Learn song with the online tabulature player
second time lucky
rememberence song


normal tuning
intro
e-----------------------------------------------
b-----------------------------------------------
g-----------------------------------------------
d-----------------------------------------------
a--4-4-4-44-4-4-4-44-4-4-4-44-4-4-4-444---------
e-3-3-3-3--3-3-3-3--3-3-3-3--3-3-3-3------------



verses
e----------------------------------------------
b----------------------------------------------
g----------------------------------------------
d-5-5-5-5-3-3-3-3-9-9-9-9-7-7-7-7--
a-5-5-5-5-3-3-3-3-9-9-9-9-7-7-7-7--play 4times
e-3-3-3-3-1-1-1-1-7-7-7-7-5-5-5-5--



chorus

e----------------------------------------------
b----------------------------------------------
g-5-5-5-5-5-5-5-5-3-3-3-3-3-3-3-3-9-9-9-9-9-9-9-9-7-7-7-7-7-7-7-7
d-5-5-5-5-5-5-5-5-3-3-3-3-3-3-3-3-9-9-9-9-9-9-9-9-7-7-7-7-7-7-7-7
a-3-3-3-3-3-3-3-3-1-1-1-1-1-1-1-1-7-7-7-7-7-7-7-7-5-5-5-5-5-5-5-5
e----------------------------------------------