Misc. Unsigned Bands - Secret And Whisper - You Are Familiar Text Guitar Tab

Learn song with the online tabulature player
-----------------------------------------------------------------------------
                             You Are Familiar - Secret and Whisper
-----------------------------------------------------------------------------

http://www.toothandnail.com/artist_releaseinfo.php?id=300
www.myspace.com/secretandwhisper

Hey, im just trying to use this tab so that the UG guy will accept secret and whisper as 
signed band, once they do that i'll resubmit my tab for the entire song

Tremolo picking
D|-------------------------------------------------|
A|--/15-/13-/17-/15-/13-/18-/17-/15-/20-20b--------|
F|-------------------------------------------------|
C|-------------------------------------------------|
G|-------------------------------------------------|
C|-------------------------------------------------|
Tremolo picking
D|---/22--20--17---/22--20--15-------|
A|-----------------------------------|
F|-----------------------------------|
C|-----------------------------------|
D|-----------------------------------|
C|-----------------------------------|
                                                        Artificial Harmonic
D|-------------------------------------------------------------------------|
A|-------------------------------------------------------------------------|
F|----------------------------------------------------------------17b--17+-|
C|--0-10-12-0-10-14-0-12-15-0-19-17-0-15-17-0-0-10-12-0-10-14-0-15---15----|
G|-------------------------------------------------------------------------|
C|-------------------------------------------------------------------------|

D|-----------------------------------------------|
A|-----------------------------------------------|
F|-----------------------------------17-19-------|
C|-0-10-12-0-10-14-0-12-15-0-19-17-0-------------|
G|-----------------------------------------------|
C|-----------------------------------------------|