Misc. Unsigned Bands - Set In Stone - Erase This Memory Text Guitar Tab

Learn song with the online tabulature player
guitar-Alex
Bass-Tyler
Vocals-Nate
Drums-Jonathan
Band groupie-simon

(play this part while alex does his cool intro thingy)
intro
e---------------------------------------|
b---------------------------------------|
g--------5-------5-------5-------5------|
d----5---5---5---5---5---5---5---5------|
a----5---3---5---3---5---3---5---3------|
E----3-------3-------3-------3----------|

Bridge

e------------------------------------------------|
b------------------------------------------------|
g---------55555------55555------55555-7777777777-|
d----5555-55555-5555-55555-5555-55555-7777777777-| 2X
a----5555-33333-5555-33333-5555-33333-5555555555-|
E----3333-------3333-------3333------------------|

pre chorus
e--------------------------------------|
b--------------------------------------|
g------------------5-55555555555----777|
d----5-55555555555-5-55555555555-2X-777| 2X
a----5-55555555555-3-33333333333----555|
E----3-33333333333---------------------|
       ***********   ***********
  "sat there.......dident know what i did...."

Chorus

e-----------------------------------------------|
b-----------------------------------------------|
g------------------------555555555-77777777-----|
d----555555555-222222222-555555555-77777777-----| 2X
a----555555555-222222222-333333333-55555555-----|
E----333333333-000000000------------------------|

     "you blew me off and you walked away..."


outro
e------------------------------------------------|--------------|
b------------------------------------------------|--------------|
g---------55555------55555------55555-7777777777-|--------------|
d----5555-55555-5555-55555-5555-55555-7777777777-| 2X end on--5-|
a----5555-33333-5555-33333-5555-33333-5555555555-|------------5-|
E----3333-------3333-------3333------------------|------------3-|

go up to this point then it goes to :
Bridge 1X
Pre chorus 2X
chorus 2X
solo with bridge behind
chorus 1X
outro


Go to pure volume to hear the song

thank you and god speed