Misc. Unsigned Bands - Settler Project - Le Text Guitar Tab

Learn the song with the online tablature player
                           LE - Settler Project

Tabs written out of a midi file by predator17.
I'm sure it's correct, but if you have any suggestions email me.

It should be played with something around 120bpm

e|--------|--------|--------|--------||--------|--------|--------|--------|G
b|----4-4-|--------|2-2-4---|2-0~----||--------|--------|4-4-2-2-|4-------|U
G|1-------|1-------|--------|--------||----1-1-|----1-1-|--------|--------|I
D|--------|--------|--------|--------||2-------|--------|--------|--------|T
A|--------|--------|--------|--------||--------|--------|--------|--------|A
E|--------|--------|--------|--------||--------|--------|--------|--------|R
                                                                          |
                                                                          |
                                                                          |
G|--------|--------|--------|--------||--------|--------|--------|--------|B
D|--------|--------|--------|--------||--------|--------|--------|--------|A
A|--------|--------|--------|--------||--------|--------|--------|--------|S
E|4-------|4-------|4-------|4-------||0-------|0-------|0-------|0-------|S

e|----2---|--------|--------|--------||--------|--------|--------|--------|G
b|0-------|4-------|2---2---|4-------||0-0-----|4-4-2-2-|----2---|4---0---|U
G|--------|--------|--------|--------||--------|--------|--------|--------|I
D|--------|--------|--------|--------||--------|--------|--------|--------|T
A|--------|--------|--------|--------||--------|--------|--------|--------|A
E|--------|--------|--------|--------||--------|--------|--------|--------|R
                                                                          |
                                                                          |
                                                                          |
G|--------|--------|--------|--------||--------|--------|--------|--------|B
D|--------|--------|--------|--------||--------|--------|--------|--------|A
A|2-------|2-------|2-------|2-------||--------|--------|--------|--------|S
E|--------|--------|--------|--------||2-------|2-------|2-------|2-------|S

repeat this 4x or to infinity