Misc. Unsigned Bands - Sex Slaves - Were Going Out Tonight Text Guitar Tab

Learn the song with the online tablature player
intro
------------------------|
--6---------------------|
--6-----------4---------|
--6-----------4---------|(x2)
--4-----------4---------|
--------------2---------|
WOooOooooOOooaAaah

verse
----------------------------------|
----------------------------------|
--6-------------6-----------------|
--6--x8--4------6--x8--6----------| (x2)
--4------4--x8--4------6--x8------|
---------2-------------4----------|

the chorus is the same as the verse...

Outro
-------------------------------------|
--------------------6----------------|
--6-----------2-----6-(x8)-----------|
--6--(x4)--4--2-----6----------------|
--4--------4--2-----4----------------|
-----------2--0----------------------|

That's Deffinitely it so if you have any corrections
Shovem up your ass....