Misc. Unsigned Bands - Sexual Lobster - Space Duck Text Guitar Tab

Learn song with the online tabulature player
Em             G              Bm             D
---0--------------3--------------2--------------2------------|
---0--------------0--------------3--------------3------------|
---0--------------0--------------4--------------2------------|
---2--------------0--------------4---------0----0---0-0-1-2--|
---2--------------2-------0-2--0-2---2-2-4----4--------------|
-0-0---0-0-2-3--2-3---3-3------------------------------------|


  Em             D              Bm
--0--------------2--------------2----------------------------|
--0--------------3--------------3----------------------------|
--0--------------2--------------4----------------------------|
0-2---2-0---0--0-0---2-0--------4----------------------------|
--2-------2--------------3-2--2-2---2-2-2---2-2-4-5-----0-2--|
--0-------------------------------------------------3-3------|