Misc. Unsigned Bands - Shark Island - Father Time Text Guitar Tab

Learn the song with the online tablature player
I see that no one else has this song, so I am putting up the intro that I have come up
with and hopefully you guys can add to it.  This is an awesome song. Contribute please!

(I don't know why I can't put the artist as Shark Island)

E------1---5--------1---6----0---3---8-----1---5---10-----------|
B---3-----------3-----------------------------------------------|
G---------------------------------------------------------------|
D---------------------------------------------------------------|
A---------------------------------------------------------------|
E---------------------------------------------------------------|

E---------------------------------------------------------------| x3
B---------------------------------------------------------------|
G---------------------------------------------------------------|
D---------------------------------------------------------------|
A---5--5--5-----3--5--5--X--X--5--5--5--3--3--------------------|
E---3--3--3-----3--3--3--X--X--3--3--3--3--3--------------------|

E---------------------------------------------------------------|
B---------------------------------------------------------------|
G---------------------------------------------------------------|
D---------------------------------------------------------------|
A---5--5--5-----3--5--5--X--X--5--5--7--5--5--------------------|
E---3--3--3-----3--3--3--X--X--3--3--5--5--5--------------------|