Misc. Unsigned Bands - Shawn And Joey - The Cool Thing Text Guitar Tab

Learn song with the online tabulature player
e|---------------------------------------------------------------------------|
B|---------------------------------------------------------------------------|
G|------5-5-5--3-3-5--------5-5-5--7-3-5-------------------------------------|
D|-5-5--5-5-5--3-3-5---5-5--5-5-5--7-3-5-------------------------------------|
A|-5-5--3-3-3--1-1-3---5-5--3-3-3--5-1-3-------------------------------------|
E|-3-3-----------------3-3---------------------------------------------------|

e|---------------------------------------------------------------------------|
B|---------------------------------------------------------------------------|
G|-------17-17-15-15-17-----15-15-19-15-17b-----15b17---------17b19----------|
D|--17-x-----------------17------------------17------------17----------------|
A|---------------------------------------------------------------------------|
E|---------------------------------------------------------------------------|