Misc. Unsigned Bands - Shockingly Ugly Kids - October Text Guitar Tab

Learn the song with the online tablature player
Intro / Verse 1        (intro x2)  (verse x7)

       Em7       G5          Csus2
E----------3--------3--------3--------3------------------------------------I
B----------3--------3--------3--------3------------------------------------I
G--------------------------------------------------------------------------I
D-----2-2---------------2-2------2-2---------------------------------------I
A-----2-2------2-2------3-3------3-3---------------------------------------I
E--------------3-3---------------------------------------------------------I
      . .      . .      . .      . .

Chorus
listen for struming pattern)

   Em7         G5       Csus2      Csus2
E---3----------3----------3----------3-------------------------------------I
B---3----------3----------3----------3-------------------------------------I
G---0----------0----------0----------0-------------------------------------I
D---2----------0----------2----------2-------------------------------------I
A---2----------2----------3----------3-------------------------------------I
E---0----------3----------0----------0-------------------------------------I

Verse 2
x4 )

       Em7       G5          Csus2
E----------3--------3--------3--------3------------------------------------I
B----------3--------3--------3--------3------------------------------------I
G--------------------------------------------------------------------------I
D-----2-2---------------2-2------2-2---------------------------------------I
A-----2-2------2-2------3-3------3-3---------------------------------------I
E--------------3-3---------------------------------------------------------I
      . .      . .      . .      . .

Bridge
listen for Struming pattern)

   Em7         G5       Csus2        D
E---3----------3----------3----------3-------------------------------------I
B---3----------3----------3----------3-------------------------------------I
G---0----------0----------0----------2-------------------------------------I
D---2----------0----------2----------0-------------------------------------I
A---2----------2----------3----------0-------------------------------------I
E---0----------3----------0----------0-------------------------------------I

Verse 3
x4 )

       Em7       G5          Csus2
E----------3--------3--------3--------3------------------------------------I
B----------3--------3--------3--------3------------------------------------I
G--------------------------------------------------------------------------I
D-----2-2---------------2-2------2-2---------------------------------------I
A-----2-2------2-2------3-3------3-3---------------------------------------I
E--------------3-3---------------------------------------------------------I
      . .      . .      . .      . .

Outro

    Csus2                  G5
E-----3-----3--------------3-----------------------------------------------I
B-----3-------3------------3-----------------------------------------------I
G-----0--------------------0-----------------------------------------------I
D-----2--------------0-----0-----------------------------------------------I
A-----3---------0h2--------2-----------------------------------------------I
E-----0--------------------3-----------------------------------------------I