Misc. Unsigned Bands - Silent View - Night Of Rain Text Guitar Tab

Learn the song with the online tablature player
Night of Rain (from 2008 album: Temporal Mid Western Skies) by Rob

Intro

d------------------------------------------------------|
a-----2----5-----2----7-----2----5------2----0~---2~---|  x2
e--0~----x----0~----x----0~----x----0-0----x----0------|

d----------0----------2----------0---------------------|
a-----2----------2----------2-----------2----0~---2~---|  x2
e--0~----x----0~----x----0~----x----0-0----x----0------|

d---------------------|
a------2----0~---2~---|  x2
e---0-----x----0------|

d------------------------|
a------2----0--2--0------|
e---0-----x---------0~---|

verse 1
Em         G           D          C   B5addb9 C
All the leaves and trees are falling,
the call to walk, to see is mine
Like a paint red bus at 4 o clock at night,
losing ones footing to easily tonight

chorus
A   Bm   Bb  A  Asus2  A
The Sun
The Sun
The Sun

verse 2
Em           G            D           C  B5addb9  C
Watches the leaves that fall through autumn,
wastes no water for it is cry
As the seem bends the light,
as they fall across the open fire

Pre Bridge
G6sus2

F#     D        F#      D
She says its in between her eyes!!!
F#        D        F#    D
She says Im walking a fine line!!!

fill
B    Bb   (slide back from the D using the chorus rhythm)

Guitar solo over verse chords

e-------------------------------------------|
b-------------------------------------------|
g--------0~----------------------7^---------|
d-----------s-7-5----------7--9------9------|
a-----2------------7--7s9---------------9---|
e--0~---------------------------------------|

e-------------------------------------------|
b-------------------------------------------|
g--------------------------------9v--7------|
d-----------s-7-5----------7--9--9v-----9---|
a-----2------------7--7s9-------------------|
e--0~----0~---------------------------------|

verse 3
Em           G           D         C   B5addb9  C
It grows to colder within outside,
I ride the bus for the love of time
Sifting through the ashes of past lives,
rewind your decision and forget the lie

Chorus
A    Bm   Bb   A  Asus2  A
The Sun
The Sun
The Sun
The Sun

outro
A   Bm
Bb Ahammer onBm Bm
Bb Ahammer onBm Bm
Bb Ahammer onBm Bm
Bb Ahammer onBm Bm