Misc. Unsigned Bands - Silverline - Letters Ill Never Send Text Guitar Tab

Learn song with the online tabulature player
Silverline
Letters I’ll Never Send
Tabbed by Jack--Upsala, MN
The verses in this song are mainly keyboard, drums, and bass.
The guitars have some background(mainly palm muted)


eb|---------------------------------------------------|
Bb|---------------------------------------------------|
Gb|-555555--77777777--10101010-99999--33333333--------|
Db|-xxxxxx--xxxxxxxx--x-x-x-x--xxxxx--xxxxxxxx--------|
Ab|-333333--55555555--8-8-8-8--77777--11111111--------|
Db|---------------------------------------------------|

eb|-------------------------------------------------------|
Bb|-------------------------------------------------------|
Gb|--10101010-9999------------10101010-9999--555555555555-|
Db|--x-x-x-x--xxxx--33333333--x-x-x-x--xxxx--xxxxxxxxxxxx-|
Ab|--8-8-8-8--7777--33333333--8-8-8-8--7777--333333333333-|
Db|-----------------33333333------------------------------|

Repeat intro twice.

On last part of intro end on this:
eb|-------|
Bb|-------|
Gb|---7---|
Db|---x---|
Ab|---5---|
Db|-------|

Verse 1
00:47
eb|----------------------|
Bb|----------------------|
Gb|---7/-5---------------|Random part
Db|---x--x---------------|
Ab|---5/-3---------------|
Db|----------------------|

Chorus 1
eb|------------------------------------------------|
Bb|------------------------------------------------|
Gb|---7--------3---------10-------5----------------|
Db|---x-(16x)--x--(16x)--x--(16x)-x-(16x)----------|
Ab|---5--------1---------8--------3----------------|
Db|------------------------------------------------|

eb|----------------------------------------------------------|
Bb|----------------------------------------------------------|
Gb|-7------101010/-99/--1010--3--------101010/-99/--1010-----|
Db|-x-(8x)-x-x-x/--xx/--x-x---x-(8x)---x-x-x/--xx/--x-x------|
Ab|-5------8-8-8/--77/--8-8---1--------8-8-8/--77/--8-8------|
Db|----------------------------------------------------------|

eb|----------------------------------------------------------|
Bb|----------------------------------------------------------|
Gb|----------101010/-99/--1010----55555555-------------------|
Db|--3-------x-x-x/--xx/--x-x-----xxxxxxxx-------------------|
Ab|--3-------8-8-8/--77/--8-8-----33333333-------------------|
Eb|--3-(8x)--------------------------------------------------|
Verse 2

eb|--------------------------------------|
Bb|--------------------------------------|
Gb|---77--7--7---55-5-55--33-3-3---------|
Db|---77--7--7---55-5-55--33-3-3---------|
Ab|---55--5--5---33-3-33--11-1-1---------|
Eb|--------------------------------------|

Chorus 2
eb|------------------------------------------------|
Bb|------------------------------------------------|
Gb|---7--------3---------10-------5----------------|
Db|---x-(16x)--x--(16x)--x--(16x)-x-(16x)----------|
Ab|---5--------1---------8--------3----------------|
Db|------------------------------------------------|

eb|----------------------------------------------------------|
Bb|----------------------------------------------------------|
Gb|-7------101010/-99/--1010--3--------101010/-99/--1010-----|
Db|-x-(8x)-x-x-x/--xx/--x-x---x-(8x)---x-x-x/--xx/--x-x------|
Ab|-5------8-8-8/--77/--8-8---1--------8-8-8/--77/--8-8------|
Db|----------------------------------------------------------|

eb|----------------------------------------------------------|
Bb|----------------------------------------------------------|
Gb|----------101010/-99/--1010----55555555-------------------|
Db|--3-------x-x-x/--xx/--x-x-----xxxxxxxx-------------------|
Ab|--3-------8-8-8/--77/--8-8-----33333333-------------------|
Eb|--3-(8x)--------------------------------------------------|

Bridge

eb|--------------------------------------|
Bb|--------------------------------------|
Gb|---77--7--77-7--55-5-55-5--33-3-3-----|
Db|---77--7--77-7--55-5-55-5--33-3-3-----|
Ab|---55--5--55-5--33-3-33-3--11-1-1-----|
Eb|--------------------------------------|

eb|--------------------------------------|
Bb|--------------------------------------|
Gb|---77777777--55555555--3333333--------|
Db|---77777777--55555533--3333333--------|
Ab|---55555555--33333333--1111111--------|
Eb|--------------------------------------|

eb|-----------------------------------------------|
Bb|-----------------------------------------------|
Gb|-19---------17-------15--------14--------------|
Db|-xx-(16x)---xx-(16x)-xx-(16x)--xx-(16x)--------|
Ab|-17---------15-------13--------12--------------|
Eb|-----------------------------------------------|

Chorus 3
eb|------------------------------------------------|
Bb|------------------------------------------------|
Gb|---7--------3---------10-------5----------------|
Db|---x-(16x)--x--(16x)--x--(16x)-x-(16x)----------|
Ab|---5--------1---------8--------3----------------|
Db|------------------------------------------------|

eb|----------------------------------------------------------|
Bb|----------------------------------------------------------|
Gb|-7------101010/-99/--1010--3--------101010/-99/--1010-----|
Db|-x-(8x)-x-x-x/--xx/--x-x---x-(8x)---x-x-x/--xx/--x-x------|
Ab|-5------8-8-8/--77/--8-8---1--------8-8-8/--77/--8-8------|
Db|----------------------------------------------------------|

eb|----------------------------------------------------------|
Bb|----------------------------------------------------------|
Gb|----------101010/-99/--1010----55555555-------------------|
Db|--3--------x-x-x/--xx/--x-x----xxxxxxxx-------------------|
Ab|--3-------8-8-8/--77/--8-8-----33333333-------------------|
Eb|--3-(8x)--------------------------------------------------|
Repeats until song is over I think twice?

Verse 1

I’m so tired of everything that I am making promises too myself why’d I pretend

Im so tired of everything that I am making promises too myself why’d I pretend

So take back now everything that I said to you

Chorus
………………………………....................................As I doubted myself
And I’d give my life for you cuz even when I look away you never turn your back on me


Verse 2

I’m so tired of never wanting to change ten years and every time it’s the same, writing
in my heart that  ill never sing. …Take take take back now all the years that I was the
running circles in this house forget my name just because I fall apart doesn’t mean that 
not trying that IM NOT TRYING!

Chorus
……………………………….........................................As I doubted myself
And I’d give my life for you cuz even when I look away you never turn your back on me

Bridge
Cuz even when I looked away you never turned your back on me, cuz even when I looked away….