Misc. Unsigned Bands - Sing Praises To Jehovah - 8 Loyally Submitting To Theocratic Order Text Guitar Tab

Learn song with the online tabulature player
e-------------------------------------------------------------------------|
b------------2-0-------------------------0-------------0------------------|
g-----------------2-1-----2-----------------2-1---------------------------|
d---------2------------4----0---0-0-0-2-----------4-4-----2-----------2---|
a--4-4-4-------------------------------------------------------4-4-4------|
E-------------------------------------------------------------------------|

e----------------------------------------------------------------------------|
b--2-0--------------------------0------------0-------------------------------|
g-------2-1----2------------------2-1----1------2---2--2-------1--1----------|
d-----------4---0----0-0-0-2-----------4--------------4---4-0----2--2--------|
a---------------------------------------------------------------------0------|
E----------------------------------------------------------------------------|

e----------------------------------------------------------------------------|
b-------------------------------------------------------0--------------------|
g-------------------2---2-------1---1--------------1-2----2------------------|
d--0----0-4-2---------4---4-0-----2---2-----0-2-4----------------------------|
a----4--------4-------------------------0------------------------------------|
E----------------------------------------------------------------------------|