Misc. Unsigned Bands - Siya Siyabend - Agri Dagindan Uctum Text Guitar Tab

Learn the song with the online tablature player
                             AGRI DAGINDAN UCTUM - Siya Siyabend

e|-5--------|
B|-5--------|
G|-5--------|
D|-7--------|
A|-7--------|
E|-5--------|

e|-5-------7-8-5-7---5-----5--------7-8-5-7---5---|
B|-6---------------8---8---6----------------8---8-|
G|-5-----------------------5----------------------|
D|-7-----------------------7----------------------|
A|-5-----------------------5----------------------|
E|------------------------------------------------|

e|-3---3-----1-1-1-----0--------------------------||
B|-5---3-----3-4-1-----1--------------------------||
G|-5---5-----3-3-3-----2--------------------------|| *2
D|-5---5-----3-3-3-----2--------------------------||
A|-3---3-----1-1-1-----0--------------------------||
E|------------------------------------------------||

e|-3---------0------------------------------------|
B|-1---------3------------------------------------|
G|-0---------0------------------------------------|
D|-2---------4------------------------------------|
A|-3---------5------------------------------------|
E|------------------------------------------------|

e|-5---------3------?-8--7--8--7------------------|
B|-5---------3------?-x--x--x--x------------------|repeat for the words (in the bottom)
G|-5---------4------?-7--7--7--7------------------|
D|-7---------5------?-7--7--7--7------------------|sözleri söylerken, calin (asagida)
A|-7---------5------?-8--8--8--8------------------|
E|-5---------3------?-x--x--x--x------------------|

After that, the other parts are repeated.
The last part (Sen su Istanbul elinde...) I havent figured out yet.
Where the questionmarks are, I wasnt not sure,

Ondan sonra diger kisimlar tekrarlaniyor.
En son kismi (Sen su Istanbul elinde...) henüz cözmedim.
Soru isaretlerinde emin degildim.

SÖZLER:

Agri Dagindan uctum
Cayir cimene düstüm
Düstüm irak ellere
Dile gelmez hallere
Su devlet dedikleri
Köhne, virane
Kurmus gönüllere
Tenha kerane

Ne sana diyecek söz
Ne bana gidecek yer var.
Ne bana diyecek söz
Ne sana gidecek yer var

Agri Dagindan uctum
Cayir cimene düstüm
Düstüm irak ellere
Dile gelmez hallere
Dön yüzünü güne bakan
Dön bizden bizden yana
Gurbet desen degil canim
Yurt desen birakmazlar bana
Gurbet desen deiil canim
Yurt desen birakmazlar sana

Sen su Istanbul elinde
Insan insan insan bul elinde
Gelde insan insan insan bul bize
Insan bul insan bul insan bul

| /   slide up
| \   slide down
| h   hammer-on
| p   pull-off
| ~   vibrato
| +   harmonic
| x   Mute note
| b   Bend
| pb  Pre-bend
| br  Bend release
| pbr Pre-bend release
| brb Bend release bend