Misc. Unsigned Bands - Skrillex - Scary Monsters And Nice Sprites Text Guitar Tab

Learn the song with the online tablature player
                Scary Monsters And Nice Sprites - SKRILLEX

I've tried to include the finger work above the parts that are tricky.

Good Luck, and happy playing =D.

1st Riff: (Synth bit)

          (index finger)        (Bar the 13's)

e|---------------------------------------------------------------------|
B|-------------11------15--13--11--------------------------------------|
G|-12--10--12------12--------------------------10------------------10--|
D|-------------------------------------------------13--12--10----------|
A|-------------------------------------13p-12------------------13------|
E|---------------------------------13----------------------------------|

  ----------------15--------------13-------------|
  --------------------13--------------11---------|
  ------------------------14--12----------12--10-|
  ------------10---------------------------------|
  13--12--13-------------------------------------|
  -----------------------------------------------|

2nd Riff: (Bit before dubstep)

e|----------------------------------------------------------------------|
B|----------------------------------------------------------------------|
G|---------10-----------------------------------------------------------|
D|---------------12----12--12--12--10----------10-12-13--12-------------|
A|-13--13------------------------------13--13----------------13--13--13-|
E|----------------------------------------------------------------------|

  ----------------------------------------------|
  ----------------------------------------------|
  ----------------------------------------------|
  -12--13/-15~----10-------------10h-12p-10~----|
  ----------------------------------------------|
  -------------------13--13--13-----------------|

3rd Riff: (spoken Bit)

e|------------------------------------------------------------------------|
B|------------------------------------------------------------------------|
G|------------------------------------------------------------------------|
D|---------------------------------------12--------------------12---------|
A|-10--12--13------------13--12--10--13------13--13----10--13------13-----|
E|-------------13--13--------------------------------------------------13-|

  ---------------------------------------------|
  ---------------------------------------------|
  ---------------------------------------------|
  --12--10----10--12--10--10--12/--15~---------|
  ----------------------------------------15~--|
  ---------------------------------------------|

4th Riff: (Piano at the end)

e|-------------------------------------10-------10-|
B|----11-10-11-11-11-13-11-13-11-13-11----11-13----|
G|-12----------------------------------------------|
D|-------------------------------------------------|
A|-------------------------------------------------|
E|-------------------------------------------------|

You've got to walk your fingers at this bit which is quite tricky.
I've tried to include the fingering.

                (Ring finger on 13)
                (Index on 12)
                (Pinky on 15)
                (Middle finger on 13)
  ---------------------------------------10-------10-|
  ---10-11----11----------------13-11-13----12-13----|
  12-------10----10----------------------------------|
  ------------------13-12----------------------------|
  ------------------------15-13----------------------|
  ---------------------------------------------------|

Play the riffs in this order: 1122112334444