Misc. Unsigned Bands - Sky Walker - In These Eyes Text Guitar Tab

Learn the song with the online tablature player
intro

e-------x-------x-------x-------x--|
B--3--3-x--3--3-x--3--3-x--3--3-x--|
G--0--0-x--0--0-x--0--0-x--0--0-x--|
D--4--4-x-------x-------x-------x--|
A-------x--3----x--3----x--3----x--|
E--0----x-------x-------x-------x--|

e-------x-------x-------x-------x--|
B--3--3-x--3--3-x--3--3-x--3--3-x--|
G--0--0-x--0--0-x--0--0-x--0--0-x--|
D--4--4-x-------x-------x-------x--|
A-------x--3----x--3----x--3----x--|
E--0----x-------x-------x-------x--|

e-------x-------x-------x-------x--|
B--3--3-x--3--3-x--3--3-x--3--3-x--|
G--0--0-x--0--0-x--0--0-x--0--0-x--|
D--4--4-x-------x-------x-------x--|
A-------x--3----x--3----x--3----x--|
E--0----x-------x-------x-------x--|

e-------x------x------|
B--3--3-x-3--3-x--3~--|
G--0--0-x-0--0-x--0~--|
D--4--4-x------x------|
A-------x-0--0-x--3~--|
E--3----x------x------|

verse

the sound of the ocean....
e-------x-------x-------x-------x--|
B--3--3-x--3--3-x--3--3-x--3--3-x--|
G--0--0-x--0--0-x--0--0-x--0--0-x--|
D--4--4-x-------x-------x-------x--|
A-------x--3----x--3----x--3----x--|
E--0----x-------x-------x-------x--|

fire in the sky...
e-------x-------x-------x-------x--|
B--3--3-x--3--3-x--3--3-x--3--3-x--|
G--0--0-x--0--0-x--0--0-x--0--0-x--|
D--4--4-x-------x-------x-------x--|
A-------x--3----x--3----x--3----x--|
E--0----x-------x-------x-------x--|

i remember that moment...
e-------x-------x-------x-------x--|
B--3--3-x--3--3-x--3--3-x--3--3-x--|
G--0--0-x--0--0-x--0--0-x--0--0-x--|
D--4--4-x-------x-------x-------x--|
A-------x--3----x--3----x--3----x--|
E--0----x-------x-------x-------x--|

as i lost my way in the stars.
e-------x------x-------x-----------|
B--3--3-x-3--3-x--3--3-x-----------|
G--0--0-x-0--0-x--0--0-x-----------|
D--4--4-x------x-------x-----------|
A-------x-0--0-x--3--3-x-----------|
E--3----x------x-------x-----------|

and it's time that is seeming...
e-------x-------x-------x-------x--|
B--3--3-x--3--3-x--3--3-x--3--3-x--|
G--0--0-x--0--0-x--0--0-x--0--0-x--|
D--4--4-x-------x-------x-------x--|
A-------x--3----x--3----x--3----x--|
E--0----x-------x-------x-------x--|

and it's time that is forcing...
e-------x-------x-------x-------x--|
B--3--3-x--3--3-x--3--3-x--3--3-x--|
G--0--0-x--0--0-x--0--0-x--0--0-x--|
D--4--4-x-------x-------x-------x--|
A-------x--3----x--3----x--3----x--|
E--0----x-------x-------x-------x--|

is it wrong that im happier here...
e-------x------x-------x-----------|
B--3--3-x-3--3-x--3--3-x-----------|
G--0--0-x-0--0-x--0--0-x-----------|
D--4--4-x------x-------x-----------|
A-------x-0--0-x--3--3-x-----------|
E--3----x------x-------x-----------|

when im not i seem to disappear.
e--2--2-x-----3-x-----3-x-----2-x--|
B--3--3-x--3--3-x--3--3-x--3--3-x--|
G--2--2-x--0--0-x--0--0-x--2--2-x--|
D--0----x-------x-------x--0--0-x--|
A-------x-------x--3--3-x-------x--|
E-------x--0----x-------x-------x--|

chorus
i could stay....
e--------x----------3-x-----3-x-----2-x--2--2-x--|
B--------x----------3-x--3--3-x--3--3-x--3--3-x--|
G--------0-(strum)--0-x--0--0-x--2--2-x--2--2-x--|
D--------2------------x-------x--0--0-x--0--0-x--|
A--------2------------x--3--3-x-------x-------x--|
E--------0------------x-------x-------x-------x--|

and i hope not to be found...
e-------x------x-------x-------x----|
B--3--3-x-3--3-x--3--3-x--3--3-x----|
G--0--0-x-0--0-x--0--0-x--0--0-x----|
D--4--4-x------x-------x-------x----|
A-------x-0--0-x--3--3-x--3--3-x----|
E--3----x------x-------x-------x----|

i could stay in these eyes forever...
e--------x----------3-x-----3-x-----2-x--2--2-x--|
B--------x----------3-x--3--3-x--3--3-x--3--3-x--|
G--------0-(strum)--0-x--0--0-x--2--2-x--2--2-x--|
D--------2------------x-------x--0--0-x--0--0-x--|
A--------2------------x--3--3-x-------x-------x--|
E--------0------------x-------x-------x-------x--|

keep my feet on the sand...
e-------x-------x---------------|
B--1--1-x--0--0-x--3--------3---|
G--0--0-x--0--0-x--0-----0------|
D--2--2-x--0--0-x-----4-------4-|
A--0----x--2----x--3------------|
E-------x-------x---------------|

stay here stuck...
e-------x-------x-------x--------|
B--1--1-x--0--0-x--3--3-x--3--3--|
G--0--0-x--0--0-x--0--0-x--2--2--|
D--2--2-x--0--0-x-------x--0--0--|
A--0----x--2----x--3----x--------|
E-------x-------x-------x--------|

post chorus

e-------x-------x-------x-------x--|
B--3--3-x--3--3-x--3--3-x--3--3-x--|
G--0--0-x--0--0-x--0--0-x--0--0-x--|
D--4--4-x-------x-------x-------x--|
A-------x--3----x--3----x--3----x--|
E--0----x-------x-------x-------x--|

e-------x-------x-------x-------x--|
B--3--3-x--3--3-x--3--3-x--3--3-x--|
G--0--0-x--0--0-x--0--0-x--0--0-x--|
D--4--4-x-------x-------x-------x--|
A-------x--3----x--3----x--3----x--|
E--0----x-------x-------x-------x--|

guitar solo

e--------------------------------------------------------------------|
B------------------------------------------10-10-9-9-----------------|
G-/11--11--11/9--9~------------------------11-11-9-9--9-7-6---6-7-6~-|
D-/11--11--11/9--9~---6-7-7/9--7/9-9/7-7~-------------------9--------|
A--------------------------------------------------------------------|
E--------------------------------------------------------------------|

second verse

her scent is....
e-------x-------x-------x-------x--|
B--3--3-x--3--3-x--3--3-x--3--3-x--|
G--0--0-x--0--0-x--0--0-x--0--0-x--|
D--4--4-x-------x-------x-------x--|
A-------x--3----x--3----x--3----x--|
E--0----x-------x-------x-------x--|

you can look...
e-------x-------x-------x-------x--|
B--3--3-x--3--3-x--3--3-x--3--3-x--|
G--0--0-x--0--0-x--0--0-x--0--0-x--|
D--4--4-x-------x-------x-------x--|
A-------x--3----x--3----x--3----x--|
E--0----x-------x-------x-------x--|

i remember that moment...
e-------x-------x-------x-------x--|
B--3--3-x--3--3-x--3--3-x--3--3-x--|
G--0--0-x--0--0-x--0--0-x--0--0-x--|
D--4--4-x-------x-------x-------x--|
A-------x--3----x--3----x--3----x--|
E--0----x-------x-------x-------x--|

for the first time...
e-------x------x-------x-----------|
B--3--3-x-3--3-x--3--3-x-----------|
G--0--0-x-0--0-x--0--0-x-----------|
D--4--4-x------x-------x-----------|
A-------x-0--0-x--3--3-x-----------|
E--3----x------x-------x-----------|

and they say ...
e-------x-------x-------x-------x--|
B--3--3-x--3--3-x--3--3-x--3--3-x--|
G--0--0-x--0--0-x--0--0-x--0--0-x--|
D--4--4-x-------x-------x-------x--|
A-------x--3----x--3----x--3----x--|
E--0----x-------x-------x-------x--|

but who says that...
e-------x-------x-------x-------x--|
B--3--3-x--3--3-x--3--3-x--3--3-x--|
G--0--0-x--0--0-x--0--0-x--0--0-x--|
D--4--4-x-------x-------x-------x--|
A-------x--3----x--3----x--3----x--|
E--0----x-------x-------x-------x--|

and know i have...
e-------x------x-------x-----------|
B--3--3-x-3--3-x--3--3-x-----------|
G--0--0-x-0--0-x--0--0-x-----------|
D--4--4-x------x-------x-----------|
A-------x-0--0-x--3--3-x-----------|
E--3----x------x-------x-----------|

nor i have nothing left to prove.
e--2--2-x-----3-x-----3-x-----2-x--|
B--3--3-x--3--3-x--3--3-x--3--3-x--|
G--2--2-x--0--0-x--0--0-x--2--2-x--|
D--0----x-------x-------x--0--0-x--|
A-------x-------x--3--3-x-------x--|
E-------x--0----x-------x-------x--|

go to chorus

bridge
          dig through the shells...
e-------x-------x-------x---------|
B--3--3-x--3--3-x--3--3-x--3--3---|
G--0--0-x--0--0-x--0--0-x--0--0---|
D-------x-------x--4--4-x--4--4---|
A--3----x--3----x-------x---------|
E-------x-------x--0----x--0------|

to find there's...
e-------x-------x-----2-x--2--2h3---|
B--3--3-x--3--3-x--3--3-x--3--3-----|
G--0--0-x--0--0-x--2--2-x--2--2-----|
D-------x-------x--0--0-x--0--0-----|
A--3----x--3----x-------x-----------|
E-------x-------x-------x-----------|

we'll stay here...
e-------x-------x-------x---------|
B--3--3-x--3--3-x--3--3-x--3--3---|
G--0--0-x--0--0-x--0--0-x--0--0---|
D-------x-------x--4--4-x--4--4---|
A--3----x--3----x-------x---------|
E-------x-------x--0----x--0------|

to make it last through the night.
e-------x-------x-------x--------|
B--1--1-x--0--0-x--3--3-x--4--4--|
G--0--0-x--0--0-x--0--0-x--0--0--|
D--2--2-x--0--0-x-------x--------|
A--0----x--2----x--3----x--3--3--|
E-------x-------x-------x--------|

outro

e-------x-------x-------x-------x--|
B--3--3-x--3--3-x--3--3-x--3--3-x--|
G--0--0-x--0--0-x--0--0-x--0--0-x--|
D--4--4-x-------x-------x-------x--|
A-------x--3----x--3----x--3----x--|
E--0----x-------x-------x-------x--|

whoa oh oh oh oh oh.....
e-------x-------x-------x-------x--|
B--3--3-x--3--3-x--3--3-x--3--3-x--|
G--0--0-x--0--0-x--0--0-x--0--0-x--|
D--4--4-x-------x-------x-------x--|
A-------x--3----x--3----x--3----x--|
E--0----x-------x-------x-------x--|

whoa oh oh oh oh oh.....
e-------x-------x-------x-------x--|
B--3--3-x--3--3-x--3--3-x--3--3-x--|
G--0--0-x--0--0-x--0--0-x--0--0-x--|
D--4--4-x-------x-------x-------x--|
A-------x--3----x--3----x--3----x--|
E--0----x-------x-------x-------x--|

whoa oh oh oh oh oh oh oh.
e-------x------x------|
B--3--3-x-3--3-x--3~--|
G--0--0-x-0--0-x--0~--|
D--4--4-x------x------|
A-------x-0--0-x--3~--|
E--3----x------x------|