Misc. Unsigned Bands - Skyler Stonestreet - My Favorite Song Text Guitar Tab

Learn song with the online tabulature player
-------------------------------------------------------------------------------
                             My Favorite Song – Skyler Stonestreet
-------------------------------------------------------------------------------
Tabbed by: Nickv1990
Email: scream_from_the_abyss@hotmail.com

Tuning: Standard with capo on 4th fret

Chords: C,G,?,G


     C       G       ?       G

e|---------------------------------------|
B|------5-------7-------7-------7--------|
G|------4-------4-------4-------4--------|
D|----6-------4-------4-------4---4------| 
A|--7------------------------------------|
E|--------0-7-----0-6-----0-7------------|

repeat this throughout the song ;)