Misc. Unsigned Bands - Slack Mcgurdle - Song Sleep Text Guitar Tab

Learn the song with the online tablature player
Intro
E-----------------|-----------------|-----------------|-----------------|
B-----------------|-----------------|-----------------|-----------------|
G-----------------|-----------------|-6-6-7-9-6-------|-6-7-9-6---------|
D-6-6-7-9-6-------|-6-7-9-6---------|-----------------|-----------------|
A-----------------|-----------------|-----------------|-----------------|
E-----------------|-----------------|-----------------|-----------------|

E-----------------|-----------------|-----------------|-----------------|
B-----------------|-----------------|-----------------|-----------------|
G-----------------|-----------------|-----------------|-----------------|
D-6-6-7-9-6-------|-6-7-9-6---------|-----------------|-----------------|
A-----------------|-----------------|-6-6-7-9-6-------|-6-7-9-6---------|
E-----------------|-----------------|-----------------|-----------------|

Verse
E-----------------|-----------------|-----------------|-----------------|
B-----------------|-----------------|-----------------|-----------------|
G-----------------|-----------------|-----------------|-----------------|
D-11--------------|-----------------|-11--------------|-----------------|
A-0-----11--------|-11/12-11--------|-0-----11--------|-11/12-11--------|
E----12-0---------|----------12-----|----12-0---------|-----------------|

E-----------------|-----------------|-----------------|-----------------|
B-----------------|-----------------|-----------------|-----------------|
G-----------------|-----------------|-----------------|-----------------|
D-11--------------|-----------------|-----------------|-----------------|
A-0-----11--------|-11/12-11--------|-9------9--------|-7------7--------|
E----12-0---------|----------12-----|-7------7--------|-5------5--------|