Misc. Unsigned Bands - Slamjam - Thorn In Your Eye Raw Theme Text Guitar Tab

Learn song with the online tabulature player
Palm Muted = .                 Tabbed by Campbell22
Slide = /
Hammer = h

Part 1

e--------------------|
B--------------------|
G--------------------|
D-0---1---3---656----|
A-0-001-003-00656----|
D-0-001-003-00656----|
    ..  ..  ..

Part 2

-----------------|
-----------------|
-----------------|
----7/-------131-|
-0007/-0-0-0-131-|
-0007/-0-0-0-131-|
 ...   . . .
Part 3
--------------|
--------------|
--------------|
-0--1--3--656-|
-0--1--3--656-|
-0--1--3--656-|

Part 4

-----------------------------------|
-----------------------------------|
--------------------------77777777-|
-00-000-000-000-000-000-00---------|
-00-000-000-000-000-000-0055555555-|
-00-000-000-000-000-000-00---------|
 .. ... ... ... ... ... ..

Chorus

-----------------------------|
-----------------------------|
-----------------------------|
-0007/-0-0-0h3-0h3-00060506--|
-0007/-0-0-0h3-0h3-00060506--|
-0007/-0-0-0h3-0h3-00060506--|

Part 5

----------------------------|
----------------------------|
-------------------77777777-|
-0--------0-----------------|
-0--------0--------55555555-|
-0--------0-----------------|

Part 6

----------------------------|
----------------------------|
----------------------------|
-5/777-5/777-5/777-10101010-|
-5/777-5/777-5/777-10101010-|
-5/777-5/777-5/777-10101010-|

                   ^
                   |
             those are ten

Order: Part 1 x5
       Part 3 x1
       Part 2 x4
       Part 1 x3
       Part 3 x1
       Part 2 x2
       Part 1 x3
       Part 3 x1
       Part 2 x4
       Part 4 x1
       Chorus x4
       Part 4 x1 (a little variation)
       Part 1 x3
       Part 3 x1
       Part 2 x2
       Part 1 x3
       Part 3 x1
       Part 2 x4
       Part 4 x1
       Chorus x4
       Part 5 x1
       Part 2 x4
       Part 6 x4
       Chorus x5

       END