Misc. Unsigned Bands - Snak The Ripper - Dangerous State Text Guitar Tab

Learn the song with the online tablature player
--------------------------------------|
-------14-------14--------------------|
-13-14----13-14-----------------------|many times
--------------------------------------|
--------------------------------------|
--------------------------------------|

-----------------------------------------------|
------15-------15-------15-------15-------15---|
12-13----13-14----13-14----13-14----13-14------|
-----------------------------------------------|
-----------------------------------------------|
-----------------------------------------------|

--------------------------------------|
-------14-------14--------------------|
-13-14----13-14-----------------------|many times
--------------------------------------|
--------------------------------------|
--------------------------------------|

-----------------------------------------------|
------15-------15-------15-------15-------15---|
12-13----13-14----13-14----13-14----13-14------|
-----------------------------------------------|
-----------------------------------------------|
-----------------------------------------------|

---------------------------------------------------------------------|
------12-------12-------12-------12------10-----10------12-------12--|
-11-13----11-13----11-13----11-13---9-11----9-11---11-13---11-13-----|
---------------------------------------------------------------------|
---------------------------------------------------------------------|
---------------------------------------------------------------------|

-14-14----------------17-16-14-----------------|
-------14----------------------14--------------|
----------14-13-13-14-------------14-13-11-----|
-----------------------------------------------|
-----------------------------------------------|
-----------------------------------------------|