Misc. Unsigned Bands - Snowing In Summer - Snow Text Guitar Tab

Learn the song with the online tablature player
E----------------------------------------------------------------------------|
B----------------------------------------------------------------------------|
D----------0-----------------0-----------------0-----------------0-----------|
G-------0-----0-----------0-----0-----------0-----0-----------0-----0--------|
A----2-----------2-----2-----------2-----0-----------0-----0-----------0-----|
E-3-----------------3-----------------2-----------------2--------------------|

E----------------------------------------------------------------------------|
B----------------------------------------0-----------------0-----------------|
D----------0-----------------0--------0-----0-----------0-----0--------------|
G-------0-----0-----------0--------0-----------0-----0-----------0-----------|
A----0-----------0-----0--------3-----------------3--------------------------|
E-0-----------------0--------------------------------------------------------|

E----------------------------------------------------------------------------|
B----------0-----------------0-----------------0-----------------0-----------|
D-------0-----0-----------0-----0-----------0-----0-----------0-----0--------|
G----0-----------0-----0-----------0-----0-----------0-----0-----------0-----|
A-2-----------------2-----------------0-----------------0--------------------|
E-------------------------------------------------------------------------3--|