Misc. Unsigned Bands - So Long Nevada - Took You Away Text Guitar Tab

Learn the song with the online tablature player
Intro x2

E-----------------------------------------|
A-----2---2-----2---2-----3---3-----3--3--|
G------2---2-----2---2-----3---3-----3--3-|
D---4---4-----4---4-----5---5-----5---5---|
B--4---4-----4---4-----5---5-----5---5----|
D-----------------------------------------|
Pre Chorus x2____________________________

E----------------------------------------|
A----------------------------------------|
G----------------------------------------|
D-3---5--3--2--3---5--3--2--3---5--5--2--|
B-3---5--3--2--3---5--3--2--3---5--5--2--|
D-3---5--3--2--3---5--3--2--3---5--5--2--|
_________________________________________