Misc. Unsigned Bands - So Original - Rocking On Text Guitar Tab

Learn the song with the online tablature player
This song/riff is played with no distortion.
any questions or suggestions

pm = palm mute

  pm   pm       #
e-9----9--------7--------------------------|
B-10---10-------8--------------------------|
G-9----9--------7--------------------------|
D------------------------------------------|
A------------------------------------------|
E------------------------------------------|

 pm pm   #
e------------------------------------------|
B------------------------------------------|
G-5--5---7---------------------------------|
D-5--5---7---------------------------------|
A------------------------------------------|
E------------------------------------------|

  pm               pm
e-9--------77---7-7-7----------------------|
B-10-------88---8-8-8----------------------|
G-9--------77---7-7-7----------------------|
D------------------------------------------|
A------------------------------------------|
E------------------------------------------|

  pm pm     #
e------------------------------------------|
B------------------------------------------|
G--5-5------3------------------------------|
D--5-5------3------------------------------|
A------------------------------------------|
E------------------------------------------|

  pm   pm       #
e-9----9--------7--------------------------|
B-10---10-------8--------------------------|
G-9----9--------7--------------------------|
D------------------------------------------|
A------------------------------------------|
E------------------------------------------|

         pm   #
e------------------------------------------|
B------------------------------------------|
G-5-57---5----3----------------------------|
D-5-57---5----3----------------------------|
A------------------------------------------|
E------------------------------------------|

  pm               pm
e-9--------77---7-7-7----------------------|
B-10-------88---8-8-8----------------------|
G-9--------77---7-7-7----------------------|
D------------------------------------------|
A------------------------------------------|
E------------------------------------------|

e------------------------------------------|
B------------------------------------------|
G-77--5------------------------------------|
D-77--5-----7--7-----5---------------------|
A-----------7--7-----5---------------------|
E------------------------------------------|