Misc. Unsigned Bands - Social Code - Beautiful Text Guitar Tab

Learn the song with the online tablature player
                             BEAUTIFUL- Social Code

INTRO
This is done on bass, but you can play iton guitar if you felt like it.
e|--------------------------------------------------------|
B|--------------------------------------------------------|
G|--------------------------------------------------------|
D|--------------------------------------------------------|
A|--------------------------------------------------------|
D|-3--3--3--3--3--3--3-3--3--3--3--3----------------------|

PICKSCAPE, then:

|----------------------------------------------------------------------|
|----------------------------------------------------------------------|
|----------------------------------------------------------------------|
|--6--6--8--10--3--3--3--3--1--8--6--5--5--5--5-----------------3v~----|
|--6--6--8--10--3--3--3--3--1--8--6--5--5--5--5--THIS x2 THEN:---------|
|--6--6--8--10--3--3--3--3--1--8--6--5--5--5--5------------------------|

VERSE
|----------------------------------------|
|----------------------------------------|
|----------------------------------------|
|------------------3--5h6p5-3-6--8h10p8--|
|--3-3-3-3-3-3-3-0-3~-------3-6~---------|
|--3-3-3-3-3-3-3-0-3~-------3-6~---------|
pm . . . . . . . .
|----------------------------------------|
|----------------------------------------|
|----------------------------------------|
|------------------3--5h6p5-3-6--8h10^---|
|--3-3-3-3-3-3-3-0-3~-------3-6~---------|
|--3-3-3-3-3-3-3-0-3~-------3-6~---------|    x2
pm . . . . . . . .

CHORUS
|------------------------------------------------------|
|------------------------------------------------------|
|------------------------------------------------------|
|--6--6--8--10--3--3--3--3--1--8--6--5--5--5--5--------|
|--6--6--8--10--3--3--3--3--1--8--6--5--5--5--5--------|
|--6--6--8--10--3--3--3--3--1--8--6--5--5--5--5--------|  x2

VERSE
|----------------------------------------|
|----------------------------------------|
|----------------------------------------|
|------------------3--5h6p5-3-6--8h10p8--|
|--3-3-3-3-3-3-3-0-3~-------3-6~---------|
|--3-3-3-3-3-3-3-0-3~-------3-6~---------|
pm . . . . . . . .
|----------------------------------------|
|----------------------------------------|
|----------------------------------------|
|------------------3--5h6p5-3-6--8h10^---|
|--3-3-3-3-3-3-3-0-3~-------3-6~---------|
|--3-3-3-3-3-3-3-0-3~-------3-6~---------|    x2
pm . . . . . . . .

CHORUS
|-------------------------------------------------------|
|-------------------------------------------------------|
|-------------------------------------------------------|
|--6--6--8--10--3--3--3--3--1--8--6--5--5--5--5---------|
|--6--6--8--10--3--3--3--3--1--8--6--5--5--5--5---------|
|--6--6--8--10--3--3--3--3--1--8--6--5--5--5--5---------|  x4

BRIDGE
|---------------------|
|---------------------|
|-15--13--6--13-------|
|-15--13--6--13--1~---|
|-13--11--4--11--1~---|
|----------------1~---|   x2

BRIDGE
2ND PART
(ticatto notes)
|----------------------------------------------------------------------|
|----------------------------------------------------------------------|
|----------------------------------------------------------------------|
|--6-6-6-6-6-6-6-66-5-5-5-5-5-5-5h6p5-3-3-3-3-3-3-3-33-1-1-1-1-1-1-1-1-|
|----------------------------------------------------------------------|
|----------------------------------------------------------------------|

CHORUS
|----------------------------------------------------|
|----------------------------------------------------|
|----------------------------------------------------|
|--6--6--8--10--3--3--3--3--1--8--6--5--5--5--5------|
|--6--6--8--10--3--3--3--3--1--8--6--5--5--5--5------|
|--6--6--8--10--3--3--3--3--1--8--6--5--5--5--5------|  x4

OUTRO
|-----------------------|
|-----------------------|
|-13--13--13--13-12-12--|
|-x---x---x---x--x--x---|
|-11--11--11--11-10-10--|
|-----------------------|  x2

END ON
|----|
|----|
|-13-|
|--x-|
|-11-|
|----|

| /  slide up
| \  slide down
| h  hammer-on
| p  pull-off
| ~  vibrato
| +  harmonic
| x  Mute note