Misc. Unsigned Bands - Social Impact - Say Something Interesting Text Guitar Tab

Learn the song with the online tablature player
(This part is actually bass, playable with guitar)
Intro/first verse

--3(x3)-----1(x3)------------
------3(x3)-----1(x3)--------(X7)

"Did you get..."

-xxxxxxxx----xxxxxxxx-------
-33333333----55555555-------
-33333333----55555555-------
-11111111x2--33333333x2----- (X2)

Chorus

-555-------333------------
-555--555--333--333-------
-333--555--111--333-------
------333-------111------- (X4)

Go back to Intro (only play four times)

Solo

-555--33-----555---------
-555-----33--555-----55--
-333---------333--33----- (X2)