Misc. Unsigned Bands - Sonic Impact - Into The Abyss Text Guitar Tab

Learn the song with the online tablature player
Play this with the tone on 0 the first time with your thumb, the second time with a
the third time with the tone on 10, the fourth time a little faster, and the last time in
time feel with a heavy swing.

(Verse)
|--------------------------------------------------------------------------|
|--------------------------------------------------------------------------|
|--------------------------------------------------------------------------|
|--------------------------------------------------------------------------|
|--------------------------------------------------------------------------|
|-0-8-7-0-8-7-0-8-7-0-8-7-0-8-7-0-8-7-0-8-7-0-8-7-0-8-7-0-8-7-0-8-7-0-8-7--|

Play this with heavy distortion through the verse, keep distortion on whole song.

(Pre-Chorus)
|--------------------------------------------------------------------------|
|--------------------------------------------------------------------------|
|--------------------------------------------------------------------------|
|-7-7-7-7-7-7-7-7-9-9-9-9-9-9-9-9-12----12----12----12---------------------|
|-5-5-5-5-5-5-5-5-7-7-7-7-7-7-7-7-10-10-10-10-10-10-10-10------------------|
|--------------------------------------------------------------------------|

(Chorus)
|--------------------------------------------------------------------------|
|--------------------------------------------------------------------------|
|--------------------------------------------------------------------------|
|-7-7-7-7-7-7-7-7-9-9-9-9-9-9-9-9-5-5-5-5-5-5-5-5--------------------------|
|-5-5-5-5-5-5-5-5-7-7-7-7-7-7-7-7-3-3-3-3-3-3-3-3--------------------------|
|--------------------------------------------------------------------------|

Play through chorus with a light swing.

(Solo)
|--------------------------------------------------------------------------|
|--------------------------------------------------------------------------|
|-0-0-0-0-0-0-0-0-2-5-3-5-7-7\5-5\3-3\2-0----------------------------------|
|--------------------------------------------------------------------------|
|--------------------------------------------------------------------------|
|--------------------------------------------------------------------------|

Play 4 times with wah and echo.

(Second Solo)
|--------------------------------------------------------------------------|
|--------------------------------------------------------------------------|
|--------------------------------------------------------------------------|
|--------------------------------------------------------------------------|
|--------------------------------------------------------------------------|
|-0000000000000000-2222-5555-3333-5555-7777-7\5-5\3-3\2-0000000000000000---|

Play this 4 times with wah no echo.

(Duet)
|-0-8-7-0-8-7-0-8-7-0-8-7-0-8-7-0-8-7-0-8-7-0-8-7-0-8-7-0-8-7-0-8-7-0------|
|--------------------------------------------------------------------------|
|--------------------------------------------------------------------------|
|--------------------------------------------------------------------------|
|--------------------------------------------------------------------------|
|--------------------------------------------------------------------------|

Play 5 times and that's the whole song hope you enjoy it.