Misc. Unsigned Bands - Sonny Moore - Mora Text Guitar Tab

Learn the song with the online tablature player
As For the strumming pattern, He strums one down stroke followed by all up strokes.
the chorus, thats just up and down.

Verse
Eb|----|---------------|
Bb|----|---------------|play the first section to start it, then the
Gb|-12-|-14----12------|second section you play 8x's.
Db|-12-|-14----12------|
Ab|-10-|-12-x7-10-x3---|
Db|-10-|-12----10------|

Chorus
Eb|------------------------------|               |-----------|
Bb|------------------------------|               |-----------|
Gb|-10----12----9----14----12----|               |-10---9----|
Db|-10----12----9----14----12----|               |-10---9----|
Ab|-8--x6-10-x6-7-x6-12-x4-10-x4-|x3 Then you do |-8-x6-7-x6-|
Db|-8-----10----x----12----10----|               |-8----7----|

Post Chorus
Eb|---------------|
Bb|---------------|
Gb|-14----12------|
Db|-14----12------|
Ab|-12-x7-10-x3---|x5
Db|-12----10------|

Verse
Eb|---------------|
Bb|---------------|
Gb|-14----12------|
Db|-14----12------|
Ab|-12-x7-10-x3---|x8
Db|-12----10------|

Chorus
Gets cut off. :\
Eb|------------------------------|               |-----------|
Bb|------------------------------|               |-----------|
Gb|-10----12----9----14----12----|               |-10---9----|
Db|-10----12----9----14----12----|               |-10---9----|
Ab|-8--x6-10-x6-7-x6-12-x4-10-x4-|x3 Then you do |-8-x6-7-x6-|
Db|-8-----10----x----12----10----|               |-8----7----|

If you want a tab for the full song to just improvise with the tech beat then play this
the chorus...

Interlude
Eb|-----------------xx-----|Eb|-----------------xx-xx----|
Bb|-----------------17-----|Bb|-----------------17-16----|
Gb|-13-14-11--13-14--------|Gb|-13-14-11--13-14----------|
Db|------------------------|Db|--------------------------|
Ab|------------------------|Ab|--------------------------|
Db|------------------------|Db|--------------------------|

Chorus
Eb|------------------------------|
Bb|------------------------------|
Gb|-10----12----9----14----12----|
Db|-10----12----9----14----12----|
Ab|-8--x6-10-x6-7-x6-12-x4-10-x4-|x3
Db|-8-----10----x----12----10----|

Then I'm guessing it's something like this..
Eb|------------------------|
Bb|------------------------|
Gb|-10----12-----10---9----|
Db|-10----12-----10---9----|
Ab|-8--x6-10-x6--8-x6-7-x6-|
Db|-8-----10-----8----7----|

Outro
one strum each)
Eb|------------------------------|
Bb|------------------------------|
Gb|-10----12----9----14----12----|
Db|-10----12----9----14----12----|
Ab|-8-----10----7----12----10----|x3
Db|-8-----10----x----12----10----|

Eb|------------------------|
Bb|------------------------|
Gb|-10----12-----10---9----|
Db|-10----12-----10---9----|
Ab|-8-----10-----8----7----|
Db|-8-----10-----8----7----|