Misc. Unsigned Bands - Spatch 45 - Piss Of Text Guitar Tab

Learn the song with the online tablature player
Guitar 1= "T.O." Isaksen
Guitar 2= "Pete" O. Hustad

h=hammer on
pm|---|= palm mute
x=muted string

Intro* (Gtr.1)
|---------------------------------------------------------------------|
|---------------------------------------------------------------------|
|---------------------------------------------------------------------|
|-------5----5---5--------3----5---5----------------------------------|
|---7-7---7----3---3--5-5---5----3---3--------------------------------|
|---------------------------------------------------------------------|x4
Pm |- - - -  - - - - - - -  -  - - - -|Two times before Pete play.

(Gtr.2 comes after Gtr.1 plays Intro two times.
 Play to the other part begins.)
|---------------------------------------------------------------------|
|---------------------------------------------------------------------|
|---------------------------------------------------------------------|
|---------------------------------------------------------------------|
|---------------------------------------------------------------------|
|---x--x--1--x--x--1--x—x--1--2--3------------------------------------|x3(maybe 4)

(Gtr.1)
|---------------------------------------------------------------------|
|---------------------------------------------------------------------|
|-----------------------------------4-4-4-4-4-4-4-4-------------------|
|---6-6-6-6-6-6-6-6-2-2-2-2-2-2-2-2-4-4-4-4-4-4-4-4-4-4-4-4-4-4-4-4---|
|---6-6-6-6-6-6-6-6-2-2-2-2-2-2-2-2-2-2-2-2-2-2-2-2-4-4-4-4-4-4-4-4---|x4
|---4-4-4-4-4-4-4-4-0-0-0-0-0-0-0-0-----------------2-2-2-2-2-2-2-2---|
Pm   |-------------| |-------------| |-------------| |-------------|

(Gtr.2 Plays to the Solo part begins.)
|---------------------------------------------------------------------|
|---------------------------------------------------------------------|
|---------------------------------------------------------------------|
|---------------------------------------------------------------------|
|-------------------3-3-3-3-------------------------------------------|
|---3-3-3-3-1-1-1-1---------------------------------------------------|

Solo
(Play as fast as you can.)
|---------------------------------------------------------------------|
|---------------------------------------------------------------------|
|---------------------------------------------------------------------|
|---0-9-8-0-8-7-0-7-6-0-6-5-0-5-4-0-4-3-0-3-2-0-2-1-0—Let-Ring--------|
|---------------------------------------------------------------------|
|---------------------------------------------------------------------|

Clean: Two times before Pete sings.
|-------0-------0-------0-------0-------------------------------------|
|-----1---1---1---1---3---3---3---3-----------------------------------|
|---0-------0-------0-------0-----------------------------------------|
|---------------------------------------------------------------------|
|---------------------------------------------------------------------|
|---------------------------------------------------------------------|

And here came the song:
Don't Cont on me, to let you know when.
Don't Cont on me, I do it again.
Don't Cont on me, it's the point you're missing.
Don't Cont on meee, cause i'm not lisning!

|--------------------------------------------|
|--------------------------------------------|
|--------------------------------------------|
|--2-2---------------------------------------|
|--2-2---------------------------------------|
|--0-0—h-3-----------------------------------|
Let  ^ that tone be, on the ending.

Was that so hard? E-mail me if it is something.
 Or Pete his E-mail is