Misc. Unsigned Bands - Spiral Staircase - First Text Guitar Tab

Learn song with the online tabulature player
Spiral Staircase:
Formed in 1999, by VB & NA as a high school band. Performed in all 7 continenets.

Verse
|-------------------------------------|
|------10-10-10--8-8-8----------------|         Repeat x10
|--9-9------------------8-8-8---------|
|-------------------------------------|
|-------------------------------------|
|-------------------------------------|

Chorus
|-------------------------------------|
|-------------------------------------|
|-------------------------------------|
|-------------------------------------|
|-------------------------------------|
|--7-7-9-9-2-2-0-0--------------------|

|--5-5-10-10-12-12-8-8-----------------|
|--------------------------------------|
|--------------------------------------|
|--------------------------------------|
|--------------------------------------|
|--------------------------------------|