Misc. Unsigned Bands - Splay - Drawing Days Text Guitar Tab

Learn the song with the online tablature player
kai so here it is, drawing days, the full tab. it sounds pretty perfect
to me lol

intro part 1 (strumming)
e-------|
b-------|
g-8----9|
D-9----9|
A-7----7|
E-------|

intro part 2 (x2)
e----------------------------|
b-4-5~--4-5/12~---7-9~/16--12|
g----------------------------|
D----------------------------|
A----------------------------|
E----------------------------|

verse           x2
e----------------|----------|
b----------------|-7/9\7----|
g----------------|----------|
D-9-9~-----16-12~|----------|
A-7-7~-----------|-------7-6|
E----------------|----------|

pre-chorus
strumming)
e--------|--------------|
b--------|--------------|
g-6-4-2-4|-6-4---5-5-7-9|
D-6-4-2-4|-6-4-6-5-5-7-9|
A-4-2-0-2|-4-2-6-3-3-5-7|
E--------|-----4--------|

chorus
strumming)
e--------|      e------|
b--------|      b------|
g-9---6-4|      g-44-44|
D-9-6-6-4|      D-44-44|
A-7-6-4-2|      A-22-22|
E---4----|x2    E------| <---- end on

verse 2 x2 im pretty sure its x2, im too lazy to check, if its not, then
only play it once xD
e--------------------|
b--------------------|
g--------------9-9-9~|
D-9~---x-x-9~--9-9-9~|
A-7~---x-x-7~--7-7-7~|
E--------------------|

pre-chorus

chorus

intro part 1

solo
e------------------|   e-------|  e------------------------|   e-------|
b-44-55-1212-777777|   b-161616|  b-77-99-1616-121212121212|   b-161616|
g------------------|   g-------|  g------------------------|   g-------|
D------------------|   D-------|  D------------------------|   D-------|
A------------------|   A-------|  A------------------------|   A-------|
E------------------|x2 E-------|  E------------------------|x2 E-------|

e-----------------------------------------------------------------------|
b-44-5-12121212121212-44-55-1212-777777-161616-77-99-1616-12121212121212|
g-----------------------------------------------------------------------|
D-----------------------------------------------------------------------|
A-----------------------------------------------------------------------|
E-----------------------------------------------------------------------|

e----------------|
b-44-55-77-99brbr|
g----------------|
D----------------|
A----------------|
E----------------|

pre-chorus

chorus

intro part 2

end on
e-----|
b-4h5~|
g-----|
D-----|
A-----|
E-----|

arigatou ^_^ (btw reborn rules lol)