Misc. Unsigned Bands - Star Of The Funeral - Fairy Tails Of Our Time Text Guitar Tab

Learn the song with the online tablature player
                             fairytales of our time - Star Of The Funeral

intro
d|------------------------------------------------|
a|------------------------------------------------|
f|------------------------------------------------|
c|----------------------(x4)----------------------|
g|--------7--------5------------------------------|
c|-xxx-xx-7-xxx-xx-5------------------------------|
verse
d|-----------------------------------------------------------------------------|
a|-----------------------------------------------------------------------------|
f|-----------------------------------------------------------------------------|
c|----5/7/8------------------5/7/8--10-----(x4)--------------------------------|
g|----3/5/6------------------3/5/6---8-----------------------------------------|
c|-xx-------xxx-xx-xxx-xx-xx---------------------------------------------------|
chorus
d|-------------------|-----1st time--------|---------------------------------------|
a|-------------------|---------------------|---------------------------------------|
f|-------------------|---------------------|---------------------------------------|
c|-------------------|---------------------|---------------------------------------|
g|----5/7/11/7/6/5/3-|-xxxx-3333-xxxx-3333-|-xxxx-1111-xxxx-1111-------------------|
c|-xx-5/7/11/7/6/5/3-|-xxxx-3333-xxxx-3333-|-xxxx-1111-xxxx-1111-------------------|
bridge
d|-----------------------------------------------------------------------------|
a|-----------------------------------------------------------------------------|
f|-------9-10-9-5---------9-10-9-5--------------9-10-9-5-------9-10-9-5/7------|
c|-77777-x-x--x-x---------x-x--x-x--------------x-x--x-x-------x-x--x-x/x------|
g|-88888-7-8--7-3--88888--7-8--7-3--1010101010--7-8--7-3-88888-7-8--7-3/5------|
7|-00000-----------88888------------1o1o1o1o1o-----------88888-----------------|