Misc. Unsigned Bands - Steadyfall - Replay Text Guitar Tab

Learn song with the online tabulature player
-------------------------------------------------------------------------------
                             Replay - Steadyfall
-------------------------------------------------------------------------------
Tabbed by: derekennamer
Email:
Visit http://www.artist.ultimate-guitar.com/steadyfall to listen
to the song.

I strum every note when I play the intro, but you can use 
pull-offs to make it easier. I will post more of the song soon 
when I have a little more time. Enjoy!

Tuning: Drop C#

Intro
D|-------------------------------|            |---------|
A|-------------------------------| Play       |---------|
F|-------------------------------|  4    Then |7------10|
C|0-6-5-0-3-2-0-3-5-0-3-2-0-5-3-0| Times      |5-------8|
G|0-6-5-0-3-2-0-3-5-0-3-2-0-5-3-0|            |5-------8|
C|0-6-5-0-3-2-0-3-5-0-3-2-0-5-3-0|            |5-------8|

D|-------------------------------|            |---------|
A|-------------------------------| Play       |---------|
F|-------------------------------|  2    Then |7------10|
C|0-6-5-0-3-2-0-3-5-0-3-2-0-5-3-0| Times      |5-------8|
G|0-6-5-0-3-2-0-3-5-0-3-2-0-5-3-0|            |5-------8|
C|0-6-5-0-3-2-0-3-5-0-3-2-0-5-3-0|            |5-------8|

D|-------------------------------|
A|-------------------------------|
F|-------------------------------|
C|0-6-5-0-3-2-0-3-5-0-3-2-0-5-3-0|
G|0-6-5-0-3-2-0-3-5-0-3-2-0-5-3-0|
C|0-6-5-0-3-2-0-3-5-0-3-2-0-5-3-0|
  x x x x x x x x x x x x x x x x

Verse
D|---------------------------------|   |---------------------------------|
A|---------------------------------|   |---------------------------------|
F|7-------7-------10-------10------| 3 |7-------7-------10-10-10-12-12-12|
C|5-5-5-5-5-5-5-5--8-8-8-8--8-8-8-8| x |5-5-5-5-5-5-5-5--8--8--8-10-10-10|
G|5-5-5-5-5-5-5-5--8-8-8-8--8-8-8-8|   |5-5-5-5-5-5-5-5--8--8--8-10-10-10|
C|5-5-5-5-5-5-5-5--8-8-8-8--8-8-8-8|   |5-5-5-5-5-5-5-5--8--8--8-10-10-10|
  x x x   x x x x    x x x    x x x       x x x   x x x

Chorus
D|-------------------------------------|
A|-------------------------------------|
F|7-7-7-7--10-10-10-10-----------------| 3 
C|x-x-x-x---8--8--8--8--7-7-7-7-7-7-7-7| x
G|5-5-5-5---8--8--8--8--5-5-5-5-5-5-5-5|
C|----------8--8--8--8--5-5-5-5-5-5-5-5|

D|-----------------------------------------|
A|-----------------------------------------|
F|10-10-10-10-10-10-10-10------------------|
C|-8--8--8--8--8--8--8--8--7-7-7-7-7-7-7-7-|
G|-8--8--8--8--8--8--8--8--5-5-5-5-5-5-5-5-|
C|-8--8--8--8--8--8--8--8--5-5-5-5-5-5-5-5-|

************************************

| /   slide up
| \   slide down
| h   hammer-on
| p   pull-off
| ~   vibrato
| +   harmonic
| x   Mute note
| b   Bend
| pb  Pre-bend
| br  Bend release
| pbr Pre-bend release
| brb Bend release bend

************************************