Misc. Unsigned Bands - Stephen Barnes - My Darling My Dear Text Guitar Tab

Learn the song with the online tablature player
Here are the chords
i didn't put the rhythm

Verse
e|---------------------------------------------------|
B|---------------------------------------------------|
G|----4—x---4-x----4-x----4—--4----------------------|
D|----5—x---5-x----5-x----5—--5----------------------|
A|----7-x---5-x----3-x----2---3----------------------|
E|---------------------------------------------------|

Chorus
e|----3-----3-----3-----3----------------------------|
B|—---3-----3-----3-----3----------------------------|
G|----------2----------------------------------------|
D|----------------2-----2----------------------------|
A|---2------------2-----3----------------------------|
E|---3------2----------------------------------------|

X = Pick scratch.