Misc. Unsigned Bands - Steven Hackney - Its Just Like A Movie Text Guitar Tab

Learn the song with the online tablature player
It's Just Like a Movie
Steven Hackney
Steven Hackney Guitar 1
             PM  PM  PM             PM   PM      ^
             E.  E.  E  E  E  E  E  Q    Q       W.
D||-------|-----------------------------------|-------------------|
A||-------|-----------------------------------|--3----------------|
F||-------|-----------------------------------|--2----------------|
C||-------|-----------------------------------|--0----------------|
G||-------|--0---0---0--1--3--1--3--0----0----|--0----------------|
C||-------|--0---0---0--1--3--1--3--0----0----|--0----------------|

  E  Q    E  Q    E  Q    E  E  E     E  Q    E  Q    E  Q    E  E  E
-----------------------------------|-----------------------------------|
-----------------------------------|-----------------------------------|
-----------------------------------|-----------------------------------|
-----------------------------------|-----------------------------------|
--0--3----0--5----0--7----0--5--3--|--0--3----0--5----0--7----8--7--5--|
--0--3----0--5----0--7----0--5--3--|--0--3----0--5----0--7----8--7--5--|

  E  Q    E  Q    E  Q    E  E  E     E  Q    E  Q    E  E
-----------------------------------|------------------------|
-----------------------------------|------------------------|
-----------------------------------|------------------------|
-----------------------------------|------------------------|
--0--3----0--5----0--7----0--5--3--|--0--3----0--5----0--0--|
--0--3----0--5----0--7----0--5--3--|--0--3----0--5----0--0--|

                                        CHINATOWN THEME
  Q    Q    Q    Q         E  Q    E  Q    E  Q    E  E  E
----------------------||------------------------------------|
----------------------||------------------------------------|
----------------------||*-----------------------------------|
----------------------||*--0--3----0--5----0--7----0--5--3--|
----------------------||---0--3----0--5----0--7----0--5--3--|
----------------------||---0--3----0--5----0--7----0--5--3--|

  E  Q    E  Q    E  Q    E  E  E     E  Q    E  Q    E  Q    E  E  E
-----------------------------------|-----------------------------------|
-----------------------------------|-----------------------------------|
-----------------------------------|-----------------------------------|
--0--3----0--5----0--7----8--7--5--|--0--3----0--5----0--7----0--5--3--|
--0--3----0--5----0--7----8--7--5--|--0--3----0--5----0--7----0--5--3--|
--0--3----0--5----0--7----8--7--5--|--0--3----0--5----0--7----0--5--3--|

                              PM PM
  E  Q    E  Q    E  E     E  E  E  E  E  Q.
------------------------|---------------------------||
------------------------|---------------------------||
------------------------|-------------------------*-||
--0--3----0--5----0--0--|-----------------1-------*-||
--0--3----0--5----0--0--|-----0--0-----0--1---------||
--0--3----0--5----0--0--|-----0--0-----0--1~--------||

                                                        STUNTMAN THEME
   Q.     Q    E  Q.     Q    E     Q.     Q    E  S  S Q    Q    E
------------------0--------------|--0--------------0h-1-L----0-------|
---------------3--------------3--|--------------3-----------------3--|
*---------2--------------2-------|---------2-------------------------|
*--0-----------------------------|-----------------------------------|
---------------------------------|-----------------------------------|
---------------------------------|-----------------------------------|

  Q.     Q    E  Q.     Q    E     Q.     Q    E  Q.     Q    E
-----------------0--------------|--0--------------5------3----1----||
--------------3--------------3--|--------------3-------------------||
---------3--------------3-------|---------3----------------------*-||
--------------------------------|--------------------------------*-||
--1-----------------------------|----------------------------------||
--------------------------------|----------------------------------||

                                                        CHINATOWN REVISITED
  Q.     Q    E  Q.     Q    E       E  Q    E  Q    E  Q    E  E  E
--0--------------5------3----1--||------------------------------------|
--------------3-----------------||------------------------------------|
---------3----------------------||*-----------------------------------|
--------------------------------||*--0--3----0--5----0--7----0--5--3--|
--------------------------------||---0--3----0--5----0--7----0--5--3--|
--------------------------------||---0--3----0--5----0--7----0--5--3--|

  E  Q    E  Q    E  Q    E  E  E     E  Q    E  Q    E  Q    E  E  E
-----------------------------------|-----------------------------------|
-----------------------------------|-----------------------------------|
-----------------------------------|-----------------------------------|
--0--3----0--5----0--7----8--7--5--|--0--3----0--5----0--7----0--5--3--|
--0--3----0--5----0--7----8--7--5--|--0--3----0--5----0--7----0--5--3--|
--0--3----0--5----0--7----8--7--5--|--0--3----0--5----0--7----0--5--3--|

                              PM PM                     PM  PM  PM
  E  Q    E  Q    E  E     E  E  E  E  E  Q.            E.  E.  E  E  E  E  E
------------------------|---------------------------||-------------------------|
------------------------|---------------------------||-------------------------|
------------------------|-------------------------*-||-------------------------|
--0--3----0--5----0--0--|-----------------1-------*-||-------------------------|
--0--3----0--5----0--0--|-----0--0-----0--1---------||--0---0---0--1--3--1--3--|
--0--3----0--5----0--0--|-----0--0-----0--1~--------||--0---0---0--1--3--1--3--|

 STUNTMAN REVISITED
    Q.     Q    E  Q.     Q    E     Q.     Q    E  S  S Q    Q    E
|------------------0--------------|--0--------------0h-1-L----0-------|
|---------------3--------------3--|--------------3-----------------3--|
|*---------2--------------2-------|---------2-------------------------|
|*--0-----------------------------|-----------------------------------|
|---------------------------------|-----------------------------------|
|---------------------------------|-----------------------------------|

  Q.     Q    E  Q.     Q    E     Q.     Q    E  Q.     Q    E
-----------------0--------------|--0--------------5------3----1----||
--------------3--------------3--|--------------3-------------------||
---------3--------------3-------|---------3----------------------*-||
--------------------------------|--------------------------------*-||
--1-----------------------------|----------------------------------||
--------------------------------|----------------------------------||

                                   W    W
                                   |----3----|
  Q.     Q    E  Q.     Q    E     Q    Q    Q     S  S  S  S  S  S  S  S
--0--------------5------3----1--|--5----3----1~---------------------10-12-|
--------------3-----------------|--------------------------10-11-13-------|
---------3----------------------|------------------9-10-12----------------|
--------------------------------|-----------------------------------------|
--------------------------------|-----------------------------------------|
--------------------------------|-----------------------------------------|

 LIFE ON THE SET
    PM   PM
    Q    Q    E.  E.  E     Q.     E  E.  E.  E     Q.     E  E.  E.  E
|------------------------|-----------------------|-----------------------|
|------------------------|-----------------------|-----------------------|
|*-----------------------|-----------------------|-----------------------|
|*------------7---7---7--|--5---------5---5---5--|--3---------3---3---3--|
|---0----0----7---7---7--|--5---------5---5---5--|--3---------3---3---3--|
|---0----0----7---7---7--|--5------0--5---5---5--|--3------0--3---3---3--|

  Q.     E  E.  E.  E        Q.     E  E  E  E  E        Q.     E  E  E  E  E
-------------------------||--------------------------||------------------------|
-------------------------||--------------------------||------------------------|
------------7-------2--*-||------------------------*-||------------------------|
--2---------7---7---2--*-||--2---------1--3--1--3--*-||--2---------1--3--1--3--|
--2------0--5---7---2----||--2------0--1--3--1--3----||--2------0--1--3--1--3--|
--2------0------7---2----||--2------0--1--3--1--3----||--2------0--1--3--1--3--|

 THE AUDITION
     Now it's a clean guitar
     W                         W                   W
|---------------------------|-------------------|-------------------|
|---------------------------|-------------------|-------------------|
|*--------------------------|-------------------|-------------------|
|*--(0)---------------------|--L----------------|--L----------------|
|---(0)---------------------|--L----------------|--L----------------|
|---(0)---------------------|--L----------------|--L----------------|

                       PM  PM  PM  PM  PM  PM  PM  PM
  W                    E   E   E   E   E   E   E   E
-------------------|----------------------------------|
-------------------|--17--17--13--13----------13--13--|
-------------------|------------------14--14----------|
--L----------------|----------------------------------|
--L----------------|----------------------------------|
--L----------------|----------------------------------|

   PM  PM  PM  PM  PM  PM  PM  PM
   E   E   E   E   E   E   E   E      W                    W                 5x
----------------------------------|---------------------|---------------------||
----------------------------------|---------------------|---------------------||
--14--14--12--12------------------|---------------------|-------------------*-||
------------------14--14--15--15--|--14~----------------|--L----------------*-||
----------------------------------|---------------------|---------------------||
----------------------------------|---------------------|---------------------||

   W                    W                   W
---------------------|-------------------|-------------------|
---------------------|-------------------|-------------------|
---------------------|-------------------|-------------------|
--(0)----------------|--L----------------|--L----------------|
--(0)----------------|--L----------------|--L----------------|
--(0)----------------|--L----------------|--L----------------|

  W                    W                    W
-------------------|---------------------|-------------------|
-------------------|---------------------|-------------------|
-------------------|---------------------|-------------------|
--L----------------|--(8)----------------|--L----------------|
--L----------------|--(8)----------------|--L----------------|
--L----------------|--(8)----------------|--L----------------|

  W                   W
-------------------|-------------------|
-------------------|-------------------|
-------------------|-------------------|
--L----------------|--L----------------|
--L----------------|--L----------------|
--L----------------|--L----------------|

     E    E    E    E    E    E    E    E
|-------------------------------------------|
|-------------------------------------------|
|*------------------------------------------|
|*------------------------------------------|
|---(0)--(0)--(0)--(0)--(0)--(0)--(0)--(0)--|
|---(0)--(0)--(0)--(0)--(0)--(0)--(0)--(0)--|

   E    E    E    E    E    E    E    E
------------------------------------------|
------------------------------------------|
------------------------------------------|
------------------------------------------|
--(0)--(0)--(0)--(0)--(0)--(0)--(0)--(0)--|
--(0)--(0)--(0)--(0)--(0)--(0)--(0)--(0)--|

   E    E    E    E    E    E    E    E
------------------------------------------|
------------------------------------------|
------------------------------------------|
------------------------------------------|
--(5)--(5)--(5)--(5)--(5)--(5)--(5)--(5)--|
--(5)--(5)--(5)--(5)--(5)--(5)--(5)--(5)--|

   E    E    E    E    E    E    E    E
------------------------------------------|
------------------------------------------|
------------------------------------------|
------------------------------------------|
--(5)--(5)--(5)--(5)--(5)--(5)--(3)--(3)--|
--(5)--(5)--(5)--(5)--(5)--(5)--(3)--(3)--|

   E    E    E    E    E    E    E    E
------------------------------------------|
------------------------------------------|
------------------------------------------|
------------------------------------------|
--(0)--(0)--(0)--(0)--(0)--(0)--(0)--(0)--|
--(0)--(0)--(0)--(0)--(0)--(0)--(0)--(0)--|

   E    E    E    E    E    E    E    E
------------------------------------------|
------------------------------------------|
------------------------------------------|
------------------------------------------|
--(0)--(0)--(0)--(0)--(0)--(0)--(7)--(7)--|
--(0)--(0)--(0)--(0)--(0)--(0)--(7)--(7)--|

   E    E    E    E    E    E    E    E
------------------------------------------|
------------------------------------------|
------------------------------------------|
------------------------------------------|
--(5)--(5)--(5)--(5)--(5)--(5)--(5)--(5)--|
--(5)--(5)--(5)--(5)--(5)--(5)--(5)--(5)--|

   E    E    E    E    E    E    E    E
------------------------------------------|
------------------------------------------|
------------------------------------------|
------------------------------------------|
--(5)--(5)--(5)--(5)--(5)--(5)--(7)--(7)--|
--(5)--(5)--(5)--(5)--(5)--(5)--(7)--(7)--|

    E     E     E     E     E     E     E     E
--------------------------------------------------|
--------------------------------------------------|
--------------------------------------------------|
--------------------------------------------------|
--(10)--(10)--(10)--(10)--(10)--(10)--(10)--(10)--|
--(10)--(10)--(10)--(10)--(10)--(10)--(10)--(10)--|

    E     E     E     E     E     E    E    E
------------------------------------------------|
------------------------------------------------|
------------------------------------------------|
------------------------------------------------|
--(10)--(10)--(10)--(10)--(10)--(10)--(7)--(7)--|
--(10)--(10)--(10)--(10)--(10)--(10)--(7)--(7)--|

   E    E    E    E    E    E    E    E
------------------------------------------|
------------------------------------------|
------------------------------------------|
------------------------------------------|
--(5)--(5)--(5)--(5)--(5)--(5)--(5)--(5)--|
--(5)--(5)--(5)--(5)--(5)--(5)--(5)--(5)--|

   E    E    E    E    E    E    E    E
--------------------------------------------||--------|-------|-------|
--------------------------------------------||--------|-------|-------|
------------------------------------------*-||*-------|-------|-------|
------------------------------------------*-||*-------|-------|-------|
--(5)--(5)--(5)--(5)--(3)--(3)--(2)--(2)----||--------|-------|-------|
--(5)--(5)--(5)--(5)--(3)--(3)--(2)--(2)----||--------|-------|-------|

                        DREAMS THEME
              Now back to Distortion
              Q                     E  Q     E   Q    E  Q     E
---------||-------------------------------------------------------|
---------||-------------------------------------------------------|
-------*-||-------------------------------------------------------|
-------*-||--12------------------------7----10--12-------7----10--|
---------||--12------------------------7----10--12-------7----10--|
---------||--12---------------------0--7----10--12----0--7----10--|

                         PM PM PM PM
   Q    E  Q    E   Q    E  E  E  E     E  E  E  E  E  E  E  E  E  E  E  E
-------------------------------------|--------------------------------------|
-------------------------------------|--------------------------------------|
-------------------------------------|--------------------------------------|
--12-------5-------10----------------|--8--8--8--8--8--8--8--8--8--8--8--8--|
--12-------5-------10----7--7--7--7--|--8--8--8--8--8--8--8--8--8--8--8--8--|
--12----0--5----0--10----7--7--7--7--|--8--8--8--8--8--8--8--8--8--8--8--8--|

   E   E   E   E   E   E   E   E   E   E   E   E
--------------------------------------------------|
--------------------------------------------------|
--------------------------------------------------|
--10--10--10--10--10--10--10--10--10--10--10--10--|
--10--10--10--10--10--10--10--10--10--10--10--10--|
--10--10--10--10--10--10--10--10--10--10--10--10--|

                                                                PM PM PM PM
   Q    E  Q     E   Q    E  Q     E      Q    E  Q    E   Q    E  E  E  E
--------------------------------------|-------------------------------------|
--------------------------------------|-------------------------------------|
--------------------------------------|-------------------------------------|
--12-------7----10--12-------7----10--|--12-------5-------10----------------|
--12-------7----10--12-------7----10--|--12-------5-------10----7--7--7--7--|
--12----0--7----10--12----0--7----10--|--12----0--5----0--10----7--7--7--7--|

  E  E  E  E  E  E  E  E  E  E  E  E
--------------------------------------|
--------------------------------------|
--------------------------------------|
--8--8--8--8--8--8--8--8--8--8--8--8--|
--8--8--8--8--8--8--8--8--8--8--8--8--|
--8--8--8--8--8--8--8--8--8--8--8--8--|

   E   E   E   E   E   E   E   E   E   E   E   E
--------------------------------------------------|
--------------------------------------------------|
--------------------------------------------------|
--10--10--10--10--10--10--10--10--10--10--10--10--|
--10--10--10--10--10--10--10--10--10--10--10--10--|
--10--10--10--10--10--10--10--10--10--10--10--10--|

 “FUCK YOU!”
    E  Q    E  Q    E  Q    E  E  E     E  Q    E  Q    E  Q    E  E  E
|------------------------------------|-----------------------------------|
|------------------------------------|-----------------------------------|
|*-----------------------------------|-----------------------------------|
|*--0--3----0--5----0--7----0--5--3--|--0--3----0--5----0--7----8--7--5--|
|---0--3----0--5----0--7----0--5--3--|--0--3----0--5----0--7----8--7--5--|
|---0--3----0--5----0--7----0--5--3--|--0--3----0--5----0--7----8--7--5--|

  E  Q    E  Q    E  Q    E  E  E     E  Q    E  Q    E  E
-----------------------------------|------------------------|
-----------------------------------|------------------------|
-----------------------------------|------------------------|
--0--3----0--5----0--7----0--5--3--|--0--3----0--5----0--0--|
--0--3----0--5----0--7----0--5--3--|--0--3----0--5----0--0--|
--0--3----0--5----0--7----0--5--3--|--0--3----0--5----0--0--|

                                                LIFE ON THE SET REVISITED
     PM PM                      PM   PM
  E  E  E  E  E  Q.             Q    Q    E.  E.  E     Q.     E  E.  E.  E
---------------------------||------------------------|-----------------------|
---------------------------||------------------------|-----------------------|
-------------------------*-||*-----------------------|-----------------------|
-----------------1-------*-||*------------7---7---7--|--5---------5---5---5--|
-----0--0-----0--1---------||---0----0----7---7---7--|--5---------5---5---5--|
-----0--0-----0--1~--------||---0----0----7---7---7--|--5------0--5---5---5--|

  Q.     E  E.  E.  E     Q.     E  E.  E.  E        Q.     E  E  E  E  E
-----------------------|-------------------------||--------------------------||
-----------------------|-------------------------||--------------------------||
-----------------------|------------7----------*-||------------------------*-||
--3---------3---3---3--|--2---------7---7---2--*-||--2---------1--3--1--3--*-||
--3---------3---3---3--|--2------0--5---7---2----||--2------0--1--3--1--3----||
--3------0--3---3---3--|--2------0------7---2----||--2------0--1--3--1--3----||

                                        ZOMBIE THEME
                           PM PM PM PM PM PM
  Q.     E  E  E  E  E     S  S  E  S  S  E   Q    Q       Q    Q    Q    Q
------------------------|-------------------------------|----------------------|
------------------------|-------------------------------|----------------------|
------------------------|-------------------------------|----------------------|
--2---------1--3--1--3--|--------------------12----7----|--0----1----2----3----|
--2------0--1--3--1--3--|--0--0--0--0--0--0--12----7----|--0----1----2----3----|
--2------0--1--3--1--3--|--0--0--0--0--0--0--12----7----|--0----1----2----3----|

  PM PM PM PM PM PM
  S  S  E  S  S  E   Q    Q       Q    Q    Q    Q
-------------------------------|----------------------|
-------------------------------|----------------------|
-------------------------------|----------------------|
--------------------12----7----|--0----1----2----3----|
--0--0--0--0--0--0--12----7----|--0----1----2----3----|
--0--0--0--0--0--0--12----7----|--0----1----2----3----|

  PM PM PM PM PM PM
  S  S  E  S  S  E   Q    Q       Q    Q    Q    Q
-------------------------------|----------------------|
-------------------------------|----------------------|
-------------------------------|----------------------|
--------------------12----7----|--0----1----2----3----|
--0--0--0--0--0--0--12----7----|--0----1----2----3----|
--0--0--0--0--0--0--12----7----|--0----1----2----3----|

  PM PM PM PM PM PM
  S  S  E  S  S  E   Q    Q       Q    Q    Q    Q
-------------------------------|----------------------|
-------------------------------|----------------------|
-------------------------------|----------------------|
--------------------12----7----|--0----1----2----3----|
--0--0--0--0--0--0--12----7----|--0----1----2----3----|
--0--0--0--0--0--0--12----7----|--0----1----2----3----|

    PM PM PM PM PM PM               PM PM PM PM PM PM PM PM PM PM
    S  S  E  S  S  E   Q    Q       S  S  E  E  E  S  S  E  E  E
|--------------------------------|--------------------------------|
|--------------------------------|--------------------------------|
|*-------------------------------|--------------------------------|
|*--------------------12----7----|--------------------------------|
|---0--0--0--0--0--0--12----7----|--0--0--0--0--0--0--0--0--0--0--|
|---0--0--0--0--0--0--12----7----|--0--0--0--0--0--0--0--0--0--0--|

  PM PM PM PM PM PM               PM PM PM PM PM
  S  S  E  S  S  E   Q    Q       S  S  E  E  E  E  Q.       4x
-------------------------------|------------------------------||
-------------------------------|------------------------------||
-------------------------------|----------------------------*-||
--------------------12----7----|--------------------1-------*-||
--0--0--0--0--0--0--12----7----|--0--0--0--0--0--0--1~--------||
--0--0--0--0--0--0--12----7----|--0--0--0--0--0--0--1~--------||

  PM   PM   PM                     PM   PM   PM
  |----3----|                      |----3----|
  Q    Q    Q    E  E  E  E        Q    Q    Q    E  E  E  E
-------------------------------||-----------------------------|
-------------------------------||-----------------------------|
-----------------------------*-||-----------------------------|
-----------------------1--3--*-||-----------------------1--3--|
--0----0----0----1--3--1--3----||--0----0----0----1--3--1--3--|
--0----0----0----1--3--1--3----||--0----0----0----1--3--1--3--|

THE AUDITION REVISITED
  PM PM PM PM PM PM PM PM    PM PM PM PM PM PM PM PM
  E  E  E  E  E  E  E  E     E  E  E  E  E  E  E  E
--------------------------|--------------------------|
--------------------------|--------------------------|
--------------------------|--------------------------|
--------------------------|--------------------------|
--0--0--0--0--0--0--0--0--|--0--0--0--0--0--0--0--0--|
--0--0--0--0--0--0--0--0--|--0--0--0--0--0--0--0--0--|

  PM PM PM PM PM PM           PM PM PM PM PM PM
  E  E  E  E  E  E  E   E     E  E  E  E  E  E  E   E
---------------------------|---------------------------|
---------------------------|---------------------------|
---------------------------|---------------------------|
---------------------------|---------------------------|
--0--0--0--0--0--0--2---3--|--0--0--0--0--0--0--2---3--|
--0--0--0--0--0--0--2h--3--|--0--0--0--0--0--0--2h--3--|

   PM  PM  PM  PM  PM  PM  PM  PM     PM  PM  PM  PM  PM  PM  PM  PM
   E   E   E   E   E   E   E   E      E   E   E   E   E   E   E   E
----------------------------------|----------------------------------|
--17--17--13--13----------13--13--|----------------------------------|
------------------14--14----------|--14--14--12--12------------------|
----------------------------------|------------------14--14--15--15--|
----------------------------------|----------------------------------|
----------------------------------|----------------------------------|

                                            PM PM PM PM PM PM PM PM
   W                    W                   E  E  E  E  E  E  E  E
---------------------|-------------------|--------------------------|
---------------------|-------------------|--------------------------|
---------------------|-------------------|--------------------------|
--14~----------------|--L----------------|--------------------------|
---------------------|-------------------|--0--0--0--0--0--0--0--0--|
---------------------|-------------------|--0--0--0--0--0--0--0--0--|

  PM PM PM PM PM PM PM PM    PM PM PM PM PM PM
  E  E  E  E  E  E  E  E     E  E  E  E  E  E  E   E
--------------------------|---------------------------|
--------------------------|---------------------------|
--------------------------|---------------------------|
--------------------------|---------------------------|
--0--0--0--0--0--0--0--0--|--0--0--0--0--0--0--2---3--|
--0--0--0--0--0--0--0--0--|--0--0--0--0--0--0--2h--3--|

  PM PM PM PM PM PM            PM  PM  PM  PM  PM  PM  PM  PM
  E  E  E  E  E  E  E   E      E   E   E   E   E   E   E   E
---------------------------|----------------------------------|
---------------------------|--17--17--13--13----------13--13--|
---------------------------|------------------14--14----------|
---------------------------|----------------------------------|
--0--0--0--0--0--0--2---3--|----------------------------------|
--0--0--0--0--0--0--2h--3--|----------------------------------|

   PM  PM  PM  PM  PM  PM  PM  PM     PM  PM  PM  PM  PM  PM  PM  PM
   E   E   E   E   E   E   E   E      E   E   E   E   E   E   E   E
----------------------------------|----------------------------------|
----------------------------------|--17--17--13--13----------13--13--|
--14--14--12--12------------------|------------------14--14----------|
------------------14--14--15--15--|----------------------------------|
----------------------------------|----------------------------------|
----------------------------------|----------------------------------|

                                                        FALLEN HERO
   PM  PM  PM  PM
   E   E   E   E   Q      Q        W                   H        Q    E  E
----------13--13--17s----13----|--20----------------|-----------L----------|
--17--17-----------------------|--------------------|----------------------|
-------------------------------|--------------------|----------------------|
-------------------------------|---0----------------|-----------L----2--3--|
-------------------------------|---0----------------|-----------L----2--3--|
-------------------------------|---0----------------|-----------L----2--3--|

  H.           E  E     H.           E  E     W
---------------------|---------------------|-------------------|
---------------------|---------------------|-------------------|
---------------------|---------------------|-------------------|
--0------------2--3--|--0------------2--3--|--8----------------|
--0------------2--3--|--0------------2--3--|--8----------------|
--0------------2--3--|--0------------2--3--|--8----------------|

  W                   W                   H        H
-------------------|-------------------|--------------------|
-------------------|-------------------|--------------------|
-------------------|-------------------|--------------------|
--L----------------|--8----------------|--5--------7--------|
--L----------------|--8----------------|--5--------7--------|
--L----------------|--8----------------|--5--------7--------|

  W                   H        Q    E  E     H.           E  E
-------------------|----------------------|---------------------|
-------------------|----------------------|---------------------|
-------------------|----------------------|---------------------|
--0----------------|-----------L----2--3--|--0------------2--3--|
--0----------------|-----------L----2--3--|--0------------2--3--|
--0----------------|-----------L----2--3--|--0------------2--3--|

  H.           E  E     W                   W
---------------------|-------------------|-------------------|
---------------------|-------------------|-------------------|
---------------------|-------------------|-------------------|
--0------------2--3--|--8----------------|--L----------------|
--0------------2--3--|--8----------------|--L----------------|
--0------------2--3--|--8----------------|--L----------------|

  W                   H        H           W
-------------------|--------------------|-------------------|
-------------------|--------------------|-------------------|
-------------------|--------------------|-------------------|
--8----------------|--5--------7--------|--0----------------|
--8----------------|--5--------7--------|--0----------------|
--8----------------|--5--------7--------|--0----------------|

  H        Q    E  E     H.           E  E     H.           E  E
----------------------|---------------------|---------------------|
----------------------|---------------------|---------------------|
----------------------|---------------------|---------------------|
-----------L----2--3--|--0------------2--3--|--0------------2--3--|
-----------L----2--3--|--0------------2--3--|--0------------2--3--|
-----------L----2--3--|--0------------2--3--|--0------------2--3--|

  W                   W                   W
-------------------|-------------------|-------------------|
-------------------|-------------------|-------------------|
-------------------|-------------------|-------------------|
--8----------------|--L----------------|--8----------------|
--8----------------|--L----------------|--8----------------|
--8----------------|--L----------------|--8----------------|

  H        H           W                   H        Q    E  E
--------------------|-------------------|----------------------|
--------------------|-------------------|----------------------|
--------------------|-------------------|----------------------|
--5--------7--------|--0----------------|-----------L----2--3--|
--5--------7--------|--0----------------|-----------L----2--3--|
--5--------7--------|--0----------------|-----------L----2--3--|

  H.           E  E     H.           E  E     W
---------------------|---------------------|-------------------|
---------------------|---------------------|-------------------|
---------------------|---------------------|-------------------|
--0------------2--3--|--0------------2--3--|--8----------------|
--0------------2--3--|--0------------2--3--|--8----------------|
--0------------2--3--|--0------------2--3--|--8----------------|

  W                   W                   H        H
-------------------|-------------------|--------------------|
-------------------|-------------------|--------------------|
-------------------|-------------------|--------------------|
--L----------------|--8----------------|--5--------7--------|
--L----------------|--8----------------|--5--------7--------|
--L----------------|--8----------------|--5--------7--------|

 STUNTMAN REVISITED
    Q.     Q    E  Q.     Q    E     Q.     Q    E  S  S Q    Q    E
|------------------0--------------|--0--------------0h-1-L----0-------|
|---------------3--------------3--|--------------3-----------------3--|
|*---------2--------------2-------|---------2-------------------------|
|*--0-----------------------------|-----------------------------------|
|---------------------------------|-----------------------------------|
|---------------------------------|-----------------------------------|

  Q.     Q    E  Q.     Q    E     Q.     Q    E  Q.     Q    E
-----------------0--------------|--0--------------5------3----1----||
--------------3--------------3--|--------------3-------------------||
---------3--------------3-------|---------3----------------------*-||
--------------------------------|--------------------------------*-||
--1-----------------------------|----------------------------------||
--------------------------------|----------------------------------||

  Q.     Q    E  Q.     Q    E       W.                  W.
--0--------------5------3----1--||--------------------|-------------------|
--------------3-----------------||--------------------|-------------------|
---------3----------------------||*-------------------|-------------------|
--------------------------------||*--0----------------|--L----------------|
--------------------------------||---0----------------|--L----------------|
--------------------------------||---0----------------|--L----------------|

  W.                  W.                     H.           H.
-------------------|---------------------||----------------------------|
-------------------|---------------------||----------------------------|
-------------------|-------------------*-||----------------------------|
--8----------------|--8----------------*-||--8------------7------------|
--8----------------|--8------------------||--8------------7------------|
--8----------------|--8------------------||--8------------7------------|

  W.                  W.                  W.
-------------------|-------------------|-------------------|
-------------------|-------------------|-------------------|
-------------------|-------------------|-------------------|
--0----------------|--L----------------|--8----------------|
--0----------------|--L----------------|--8----------------|
--0----------------|--L----------------|--8----------------|

-------------------||
-------------------||
-------------------||
-------------------||
-------------------||
-------------------||

Duration Legend

W - whole
H - half
Q - quarter
E - 8th
S - 16th
T - 32nd
X - 64th
. - note dotted
|-n-|  - n-tuplets