Misc. Unsigned Bands - Straatligkinders - Die Avontuur Van N Hartbreek Text Guitar Tab

Learn song with the online tabulature player
Straatligkinders – Die avontuur van ‘n hartbreek:
Hele song

Intro:
No guitar

Riff:
e|---------------------------------------|
B|---------------------------------------|
G|-12-12-12-11-11-11-7-7-7-7-7-7-7-7-7-7-|
D|-x x x x x x x x x x x x x x x x x x x-   x2
A|-10-10-10--9--9--9-5-5-5-5-5-5-5-5-5-5-|
E|---------------------------------------|

e|------------------------------------------|
B|------------------------------------------|
G|------------------------------------------|
D|-9-9-9-9-9-9-9-10-10-10-10-10-10-10-10-10-|   x2
A|-9-9-9-9-9-9-9-10-10-10-10-10-10-10-10-10-|
E|-7-7-7-7-7-7-7--8--8--8--8--8--8--8--8--8-|

e|---------------------------------------|
B|---------------------------------------|
G|-12-12-12-11-11-11-7-7-7-7-7-7-7-7-7-7-|
D|-x x x x x x x x x x x x x x x x x x x-   x2
A|-10-10-10--9--9--9-5-5-5-5-5-5-5-5-5-5-|
E|---------------------------------------|

e|------------------------------------------|
B|------------------------------------------|
G|------------------------------------------|
D|-9-9-9-9-9-9-9-10-10-10-10-10-10-10-10-10-|   x2
A|-9-9-9-9-9-9-9-10-10-10-10-10-10-10-10-10-|
E|-7-7-7-7-7-7-7--8--8--8--8--8--8--8--8--8-|

Verse 1:
e|----------------------------------------------------------|
B|----------------------------------------------------------|
G|-------12-12-12-12-11-11-11-11-7-7-7-7-9-9-9-11-11-11-----|
D|-9-9-9-x x x x x x x x x x x x x x x x x x x x x x x x----|   x4
A|-9-9-9-10-10-10-10--9--9--9--9-5-5-5-5-7-7-7--9--9--9-----|
E|-7-7-7----------------------------------------------------|

Pre-Chorus:
W/Light distortion:
e|----------------------------|
B|----------------------------|
G|----------------------------|
D|-9-9-9-10-10-10-10-10-10-10-|
A|-9-9-9-10-10-10-10-10-10-10-|
E|-7-7-7--8--8—-8--8--8--8--8-|

Chorus:
e|---------------------------------------|
B|---------------------------------------|
G|-12-12-12-11-11-11-7-7-7-7-7-7-7-7-7-7-|
D|-x x x x x x x x x x x x x x x x x x x-   x2
A|-10-10-10--9--9--9-5-5-5-5-5-5-5-5-5-5-|
E|---------------------------------------|

e|------------------------------------------|
B|------------------------------------------|
G|------------------------------------------|
D|-9-9-9-9-9-9-9-10-10-10-10-10-10-10-10-10-|   x2
A|-9-9-9-9-9-9-9-10-10-10-10-10-10-10-10-10-|
E|-7-7-7-7-7-7-7--8--8--8--8--8--8--8--8--8-|

e|---------------------------------------|
B|---------------------------------------|
G|-12-12-12-11-11-11-7-7-7-7-7-7-7-7-7-7-|
D|-x x x x x x x x x x x x x x x x x x x-   x2
A|-10-10-10--9--9--9-5-5-5-5-5-5-5-5-5-5-|
E|---------------------------------------|

e|------------------------------------------|
B|------------------------------------------|
G|------------------------------------------|
D|-9-9-9-9-9-9-9-10-10-10-10-10-10-10-10-10-|   x2
A|-9-9-9-9-9-9-9-10-10-10-10-10-10-10-10-10-|
E|-7-7-7-7-7-7-7--8--8--8--8--8--8--8--8--8-|

Repeat verse

Repeat Pre-Chorus

Repeat chorus

Bridge:
e|-----------------------------------------|
B|-----------------------------------------|
G|-----------------------------------------|
D|-9-9-9-9-9-9-9-9-10-10-10-10-10-10-10-10-|
A|-9-9-9-9-9-9-9-9-10-10-10-10-10-10-10-10-|
E|-7-7-7-7-7-7-7-7--8--8--8--8--8--8--8--8-|

e|---------------------------------|
B|---------------------------------|
G|---------------------------------|
D|-5-5-5-5-5-5-5-5-0-0-0-0-0-0-0-0-|
A|-5-5-5-5-5-5-5-5-0-0-0-0-0-0-0-0-|
E|-3-3-3-3-3-3-3-3-----------------|

e|-----------------------------------------|
B|-----------------------------------------|
G|-----------------------------------------|
D|-9-9-9-9-9-9-9-9-10-10-10-10-10-10-10-10-|
A|-9-9-9-9-9-9-9-9-10-10-10-10-10-10-10-10-|
E|-7-7-7-7-7-7-7-7--8--8--8--8--8--8--8--8-|

e|---------------------------------|
B|---------------------------------|
G|---------------------------------|
D|-5-5-5-5-5-5-5-5-0-0-0-0-0-0-0-0-|
A|-5-5-5-5-5-5-5-5-0-0-0-0-0-0-0-0-|
E|-3-3-3-3-3-3-3-3-----------------|

e|-----------------------------------------|
B|-----------------------------------------|
G|--------------------------------12-12-12-|
D|-9-9-9-9-9-9-9-9-10-10-10-10-10-12-12-12-|
A|-9-9-9-9-9-9-9-9-10-10-10-10-10-10-10-10-|
E|-7-7-7-7-7-7-7-7--8--8--8--8--8----------|

e|---------------------------------|
B|---------------------------------|
G|---------------------------------|
D|-5-5-5-5-5-5-5-5-0-0-0-0-0-0-0-0-|
A|-5-5-5-5-5-5-5-5-0-0-0-0-0-0-0-0-|
E|-3-3-3-3-3-3-3-3-----------------|

e|-----------------------------------------|
B|-----------------------------------------|
G|--------------------------------12-12-12-|
D|-9-9-9-9-9-9-9-9-10-10-10-10-10-12-12-12-|
A|-9-9-9-9-9-9-9-9-10-10-10-10-10-10-10-10-|
E|-7-7-7-7-7-7-7-7--8--8--8--8--8----------|

Repeat chorus

Riff:
e|---------------------------------------|
B|---------------------------------------|
G|-12-12-12-11-11-11-7-7-7-7-7-7-7-7-7-7-|
D|-x x x x x x x x x x x x x x x x x x x-   x2
A|-10-10-10--9--9--9-5-5-5-5-5-5-5-5-5-5-|
E|---------------------------------------|

e|------------------------------------------|
B|------------------------------------------|
G|------------------------------------------|
D|-9-9-9-9-9-9-9-10-10-10-10-10-10-10-10-10-|   x2
A|-9-9-9-9-9-9-9-10-10-10-10-10-10-10-10-10-|
E|-7-7-7-7-7-7-7--8--8--8--8--8--8--8--8--8-|

Outro:
e|---------|
B|---------|
G|-12-11-7-|
D|-x x x x-
A|-10--9-5-|
E|---------|