Misc. Unsigned Bands - Straatligkinders - Die Beskermer Text Guitar Tab

Learn the song with the online tablature player
Straatligkinders – Die beskermer (album version):

Intro
e|-------------------------------------------------|
B|-------------------------------------------------|
G|-6-6-6-6-6-6-6-6---6-6-6-6-6-6-6-4-6-6-6-6-6-6-6-|
D|-------------------------------------------------|
A|-------------------------------------------------|
E|-------------------------------------------------|

e|---------------------------------------------------------------|
B|---------------------------------------------------------------|
G|-6-6-6-6-6-6-6-4-6-6-6-6-6-6-6---6-6-6-6-6-6-6-4-6-6-6-6-6-6-6-|
D|---------------------------------------------------------------|
A|---------------------------------------------------------------|
E|---------------------------------------------------------------|

e|---------------|
B|---------------|
G|-6-6-6-6-6-6-6-|
D|---------------|
A|---------------|
E|---------------|

Riff
e|-----------------------------------------------------------------|
B|-----------------------------------------------------------------|
G|---------------------------------2-2-2-2-2-2-2-2---2-2-2-2-2-2-2-|
D|---------------------------------2-2-2-2-2-2-2-2---2-2-2-2-2-2-2-|
A|---------------------------------0-0-0-0-0-0-0-0---0-0-0-0-0-0-0-|
E|-----------------------------------------------------------------|

e|-----------------------------------------------------------------|
B|-----------------------------------------------------------------|
G|-4-4-4-4-4-4-4-4---4-4-4-4-4-4-4---------------------------------|
D|-4-4-4-4-4-4-4-4---4-4-4-4-4-4-4-4-4-4-4-4-4-4-4---4-4-4-4-4-4-4-|
A|-2-2-2-2-2-2-2-2---2-2-2-2-2-2-2-4-4-4-4-4-4-4-4---4-4-4-4-4-4-4-|
E|---------------------------------2-2-2-2-2-2-2-2---2-2-2-2-2-2-2-|

e|-----------------------------------------------------------------|
B|-----------------------------------------------------------------|
G|-6-6-6-6-6-6-6-6---6-6-6-6-6-6-6-2-2-2-2-2-2-2-2---2-2-2-2-2-2-2-|
D|-6-6-6-6-6-6-6-6---6-6-6-6-6-6-6-2-2-2-2-2-2-2-2---2-2-2-2-2-2-2-|
A|-4-4-4-4-4-4-4-4---4-4-4-4-4-4-4-0-0-0-0-0-0-0-0---0-0-0-0-0-0-0-|
E|-----------------------------------------------------------------|

e|-----------------------------------------------------------------|
B|-----------------------------------------------------------------|
G|-4-4-4-4-4-4-4-4---4-4-4-4-4-4-4---------------------------------|
D|-4-4-4-4-4-4-4-4---4-4-4-4-4-4-4-4-4-4-4-4-4-4-4---4-4-4-4-4-4-4-|
A|-2-2-2-2-2-2-2-2---2-2-2-2-2-2-2-4-4-4-4-4-4-4-4---4-4-4-4-4-4-4-|
E|---------------------------------2-2-2-2-2-2-2-2---2-2-2-2-2-2-2-|

Verse 1
e|-----------------------------------------------------------------|
B|-----------------------------------------------------------------|
G|-6-6-6-6-6-6-6-6---6-6-6-6-6-6-6---------------------------------|
D|-x x x x x x x x---x x x x x x x-7-7-7-7-7-7-7-7---7-7-7-7-7-7-7-|
A|-4-4-4-4-4-4-4-4---4-4-4-4-4-4-4-x x x x x x x x---x x x x x x x-|
E|---------------------------------5-5-5-5-5-5-5-5---5-5-5-5-5-5-5-|

e|-----------------------------------------------------------------|
B|-----------------------------------------------------------------|
G|-----------------------------------------------------------------|
D|-9-9-9-9-9-9-9-9---9-9-9-9-9-9-9-4-4-4-4-4-4-4-4---4-4-4-4-4-4-4-|
A|-x x x x x x x x---x x x x x x x x x x x x x x x---x x x x x x x-|
E|-7-7-7-7-7-7-7-7---7-7-7-7-7-7-7-2-2-2-2-2-2-2-2---2-2-2-2-2-2-2-|

e|-----------------------------------------------------------------|
B|-----------------------------------------------------------------|
G|-6-6-6-6-6-6-6-6---6-6-6-6-6-6-6---------------------------------|
D|-x x x x x x x x---x x x x x x x-7-7-7-7-7-7-7-7---7-7-7-7-7-7-7-|
A|-4-4-4-4-4-4-4-4---4-4-4-4-4-4-4-x x x x x x x x---x x x x x x x-|
E|---------------------------------5-5-5-5-5-5-5-5---5-5-5-5-5-5-5-|

e|-----------------------------------------------------------------|
B|-----------------------------------------------------------------|
G|-----------------------------------------------------------------|
D|-9-9-9-9-9-9-9-9---9-9-9-9-9-9-9-4-4-4-4-4-4-4-4---4-4-4-4-4-4-4-|
A|-x x x x x x x x---x x x x x x x x x x x x x x x---x x x x x x x-|
E|-7-7-7-7-7-7-7-7---7-7-7-7-7-7-7-2-2-2-2-2-2-2-2---2-2-2-2-2-2-2-|

e|-----------------------------------------------------------------|
B|-----------------------------------------------------------------|
G|-6-6-6-6-6-6-6-6---6-6-6-6-6-6-6-2-2-2-2-2-2-2-2---2-2-2-2-2-2-2-|
D|-6-6-6-6-6-6-6-6---6-6-6-6-6-6-6-2-2-2-2-2-2-2-2---2-2-2-2-2-2-2-|
A|-4-4-4-4-4-4-4-4---4-4-4-4-4-4-4-0-0-0-0-0-0-0-0---0-0-0-0-0-0-0-|
E|-----------------------------------------------------------------|

e|-----------------------------------------------------------------|
B|-----------------------------------------------------------------|
G|-4-4-4-4-4-4-4-4---4-4-4-4-4-4-4---------------------------------|
D|-4-4-4-4-4-4-4-4---4-4-4-4-4-4-4-4-4-4-4-4-4-4-4---4-4-4-4-4-4-4-|
A|-2-2-2-2-2-2-2-2---2-2-2-2-2-2-2-4-4-4-4-4-4-4-4---4-4-4-4-4-4-4-|
E|---------------------------------2-2-2-2-2-2-2-2---2-2-2-2-2-2-2-|

Pre-Chorus
e|-----------------------------------------------------------------|
B|-----------------------------------------------------------------|
G|-6-6-6-4-4-4-6-6-6-4-4-4-6-6-4-4-9-9-9-8-8-8-9-9-9-8-8-8-9-8-6-4-|
D|-----------------------------------------------------------------|
A|-----------------------------------------------------------------|
E|-----------------------------------------------------------------|

e|-------------------------------------------------------|
B|-------------------------------------------------------|
G|-6-6-6-4-4-4-6-6-6-4-4-4-6-6-4-4-9-9-8-8-9-9-8-8-8h9-8-|
D|-------------------------------------------------------|
A|-------------------------------------------------------|
E|-------------------------------------------------------|

Chorus
e|---------------------------------|
B|---------------------------------|
G|-6-6-6-6-----------------4-4-4-4-|
D|-6-6—6-6-7-7-7-7-2-2-2-2-4-4-4-4-|   x4
A|-4-4-4-4-7-7-7-7-2-2-2-2-2-2-2-2-|
E|---------5-5-5-5-0-0-0-0---------|

Verse 2
e|-------------------------------------------------|
B|-------------------------------------------------|
G|-6-6-6-6-6-6-6-6---6-6-6-6-6-6-6-4-6-6-6-6-6-6-6-|
D|-------------------------------------------------|
A|-------------------------------------------------|
E|-------------------------------------------------|

e|---------------------------------------------------------------|
B|---------------------------------------------------------------|
G|-6-6-6-6-6-6-6-4-6-6-6-6-6-6-6---6-6-6-6-6-6-6-4-6-6-6-6-6-6-6-|
D|---------------------------------------------------------------|
A|---------------------------------------------------------------|
E|---------------------------------------------------------------|

e|---------------|
B|---------------|
G|-6-6-6-6-6-6-6-|
D|---------------|
A|---------------|
E|---------------|

e|-------------------------------------------------|
B|-------------------------------------------------|
G|-6-6-6-6-6-6-6-6---6-6-6-6-6-6-6-4-6-6-6-6-6-6-6-|
D|-------------------------------------------------|
A|-------------------------------------------------|
E|-------------------------------------------------|

e|---------------------------------------------------------------|
B|---------------------------------------------------------------|
G|-6-6-6-6-6-6-6-4-6-6-6-6-6-6-6---6-6-6-6-6-6-6-4-6-6-6-6-6-6-6-|
D|---------------------------------------------------------------|
A|---------------------------------------------------------------|
E|---------------------------------------------------------------|

e|---------------|
B|---------------|
G|-6-6-6-6-6-6-6-|
D|---------------|
A|---------------|
E|---------------|

Repeat Pre-Chorus

Repeat Chorus

Bridge
Geen guitar in die eerste deel nie, na dit speel jy:
(luister die song – 3:08)

Gebruik vinnige up-and-down strumming:
e|-------------------------------------------------------------------|
B|-------------------------------------------------------------------|
G|1111111111111111-9-9-9-9-9-9-9-9-1414141414141414-1313131313131313-|
D|-x x x x x x x x x x x x x x x x x x x x x x x x x x x x x x x x x
A|-9-9-9-9-9-9-9-9-7-7-7-7-7-7-7-7-1212121212121212-1111111111111111-|
E|-------------------------------------------------------------------|

e|-----------------------------------------------------------------|
B|-----------------------------------------------------------------|
G|1111111111111111-9-9-9-9-9-9-9-9-6-6-6-6-6-6-6-6-9-9-9-9-9-9-9-9-|
D|-x x x x x x x x x x x x x x x x x x x x x x x x x x x x x x x x-
A|-9-9-9-9-9-9-9-9-7-7-7-7-7-7-7-7-4-4-4-4-4-4-4-4-7-7-7-7-7-7-7-7-|
E|-----------------------------------------------------------------|

e|-------------------------------------------------------------------|
B|-------------------------------------------------------------------|
G|1111111111111111-9-9-9-9-9-9-9-9-1414141414141414-1313131313131313-|
D|-x x x x x x x x x x x x x x x x x x x x x x x x x x x x x x x x x
A|-9-9-9-9-9-9-9-9-7-7-7-7-7-7-7-7-1212121212121212-1111111111111111-|
E|-------------------------------------------------------------------|

e|-----------------------------------------------------------------|
B|-----------------------------------------------------------------|
G|1111111111111111-9-9-9-9-9-9-9-9-6-6-6-6-6-6-6-6-9-9-9-9-9-9-9-9-|
D|-x x x x x x x x x x x x x x x x x x x x x x x x x x x x x x x x-
A|-9-9-9-9-9-9-9-9-7-7-7-7-7-7-7-7-4-4-4-4-4-4-4-4-7-7-7-7-7-7-7-7-|
E|-----------------------------------------------------------------|

Riff
e|-----------------------------------------------------------------|
B|-----------------------------------------------------------------|
G|-6-6-6-6-6-6-6-6---6-6-6-6-6-6-6-2-2-2-2-2-2-2-2---2-2-2-2-2-2-2-|
D|-6-6-6-6-6-6-6-6---6-6-6-6-6-6-6-2-2-2-2-2-2-2-2---2-2-2-2-2-2-2-|
A|-4-4-4-4-4-4-4-4---4-4-4-4-4-4-4-0-0-0-0-0-0-0-0---0-0-0-0-0-0-0-|
E|-----------------------------------------------------------------|

e|-----------------------------------------------------------------|
B|-----------------------------------------------------------------|
G|-4-4-4-4-4-4-4-4---4-4-4-4-4-4-4---------------------------------|
D|-4-4-4-4-4-4-4-4---4-4-4-4-4-4-4-4-4-4-4-4-4-4-4---4-4-4-4-4-4-4-|
A|-2-2-2-2-2-2-2-2---2-2-2-2-2-2-2-4-4-4-4-4-4-4-4---4-4-4-4-4-4-4-|
E|---------------------------------2-2-2-2-2-2-2-2---2-2-2-2-2-2-2-|

Repeat Chorus

Outro
e|-----------------|
B|-----------------|
G|-6-6-6-6-6-6-6-6-|
D|-x x x x x x x x-
A|-4-4-4-4-4-4-4-4-|
E|-----------------|