Misc. Unsigned Bands - Suamenleijona - Keppana Viimeinen Text Guitar Tab

Learn song with the online tabulature player
-------------------------------------------------------------------------------
                             Keppana Viimeinen - Suamenleijona
-------------------------------------------------------------------------------
Tabbed by: Muhis69
Email: xinjinbei@gmail.com

Tuning: Standard (EADGBe)

Intro:

Dm

e|----1--1----1--1----1--1--1|
B|---3-3--3--3-3--3--3-3--3-3|
G|--2---2---2---2---2---2---2|
D|-0-------0-------0--------0|
A|--------------------------0|
E|--------------------------0|



Verse:

Dm

e|----1--1--|
B|---3-3--3-|
G|--2---2---|
D|-0--------|
A|----------|
E|----------|

Chorus:

C         G          Em                          C
  Jani on Mulkku, ja mua ei kiinnosta elää ilman keppanaa...