Misc. Unsigned Bands - Sub-motive - Do Me Like You Do Text Guitar Tab

Learn the song with the online tablature player
                       Do Me Like You Do - Sub-Motive

Intro
e|-x------------------------------|
B|-x------9/11---9-----------6----|
G|-x---------------10\8--6-8---6--|
D|------8-------------------------|
A|--------------------------------|
E|--------------------------------|

e|--------------------------------|
B|-----9/11---9-------------------|
G|--------------10\8--6--8h10-----|
D|---8----------------------------|
A|--------------------------------|
E|--------------------------------|

e|-------------------------------------------|
B|-----9/11---9-----------6------------------|
G|--------------10\8--6-8---6----------------|
D|---8------------------------8-6------------|
A|--------------------------------8-6-6/8----|
E|----------------------------------------9-6|

Verse
e|----------------------------------|
B|----------------------------------|
G|----------------------------------|
D|-----------------------8--8-------| x4
A|---8--8-----8-8--6--6--6--6-------|
E|---6--6-----6-6--4--4-------------|

e|----------------------------------|
B|----------------------------------|
G|----------------------------------|
D|---8--8-----8-8--6--6-------------| x2
A|---6--6-----6-6--4--4--6--6-------|
E|-----------------------4--4-------|

e|----------------------------------|
B|----------------------------------|
G|----------------------------------|
D|-----------------------8--8-------| x2
A|---8--8-----8-8--6--6--6--6-------|
E|---6--6-----6-6--4--4-------------|

Chorus
e|----------------------------------|
B|----------------------------------|
G|----------------------------------|
D|-----------------------8--8-------|
A|---3--3-----3-3--6--6--6--6-------|
E|---1--1-----1-1--4--4-------------|

e|----------------------------------|
B|----------------------------------|
G|----------------------------------|
D|----------------------------------|
A|---3--3-----3-3--6--6---7--7------|
E|---1--1-----1-1--4--4---5--5------|

Verse
e|----------------------------------|
B|----------------------------------|
G|----------------------------------|
D|-----------------------8--8-------| x2
A|---8--8-----8-8--6--6--6--6-------|
E|---6--6-----6-6--4--4-------------|

Gutiar 1
e|----------------------------------------------------------------------------------|
B|-----------------------------------------------9-10-11----------------------------|
G|-8b10~8b10~---8b10-8~--6-8p6--6-8p6--6-8p6--------------8-6h8-6b------------------|
D|-----------------------------8------8------8\---------------------8-6-------------|
A|----------------------------------------------------------------------8-6-6/8-----|
E|------------------------------------------------------------------------------9-6-|

Guitar 2 Part
e|----------------------------------|
B|----------------------------------|
G|----------------------------------|
D|-----------------------8--8-------| x8
A|---8--8-----8-8--6--6--6--6-------|
E|---6--6-----6-6--4--4-------------|

e|----------------------------------|
B|----------------------------------|
G|----------------------------------|
D|---8--8-----8-8--6--6-------------| x2
A|---6--6-----6-6--4--4--6--6-------|
E|-----------------------4--4-------|

e|----------------------------------|
B|----------------------------------|
G|----------------------------------|
D|-----------------------8--8-------| x2
A|---8--8-----8-8--6--6--6--6-------|
E|---6--6-----6-6--4--4-------------|

e|----------------------------------|
B|----------------------------------|
G|----------------------------------|
D|-----------------------8--8-------|
A|---3--3-----3-3--6--6--6--6-------|
E|---1--1-----1-1--4--4-------------|

e|----------------------------------|
B|----------------------------------|
G|----------------------------------|
D|----------------------------------|
A|---3--3-----3-3--6--6---7--7------|
E|---1--1-----1-1--4--4---5--5------|

I have some of the riffs figured out, but you can just mess around.

Outro
e|----------------------------|
B|-----9/11---9-----------6---|
G|--------------10\8--6-8---6-|
D|---8------------------------| x2
A|----------------------------|
E|----------------------------|

e|--------------------------11b-11b-11b-11b-11b13r11p9-----------|
B|-----9/11---9-11b13r11~------------------------------11--------|
G|---------------------------------------------------------------|
D|---8-----------------------------------------------------------|
A|---------------------------------------------------------------|
E|---------------------------------------------------------------|

Have fun with what's here. It's a good song to jam to.

| /  slide up
| \  slide down
| h  hammer-on
| p  pull-off
| b  bend
| r  release bend
| ~  vibrato
| +  harmonic
| x  Mute note