Misc. Unsigned Bands - Subatomic Countdown - Now Youre Gone Text Guitar Tab

Learn song with the online tabulature player
e|---10------10------10------10------10------10------10------10------10----|
B|-----10--10--10--10--10--10--10--10--10--10--10--10--10--10--10--10------|
G|-------12------12------12------12------12------12------12------12--------|
D|-------------------------------------------------------------------------|
A|-------------------------------------------------------------------------|
E|-------------------------------------------------------------------------|

e|--10--10--10-10-10--10--10--10-10-10--10--10--10-10-10--10--12--12-12-12-|
B|--10--10--10-10-10--10--10--10-10-10--10--10--10-10-10--10--12--12-12-12-|
G|--12--12--12-12-12--12--12--12-12-12--12--12--12-12-12--12--12--12-12-12-|
D|--------------------0-----------------0-----------------0----------------|
A|--------------------------------------------------------0----------------|
E|-------------------------------------------------------------------------|

e|---10------10------10------10------10------10------10------10------10----|
B|-----10--10--10--10--10--10--10--10--10--10--10--10--10--10--10--10------|
G|-------12------12------12------12------12------12------12------12--------|
D|-------------------------------------------------------------------------|
A|-------------------------------------------------------------------------|
E|-------------------------------------------------------------------------|