Misc. Unsigned Bands - Succubus Raptured - Abused Text Guitar Tab

Learn the song with the online tablature player
This is the novice version of Abused by Succubus Raptured, this is the rhythm guiar tabs
will mention how what lead guitar plays, I will submit the lead guitar tabs later.

Intro
(this part is important to know for playing the lead guitars for the song as the
is also what the lead guitar plays in the chourse)

 0--3--232---02-32-0--2333-|
 0--3--232---02-32-0--2333-|
 0--3--232---02-32-0--2333-|    play this 3 times for rhythm guitar
 --------------------------|
 --------------------------|
 --------------------------|

Verse 1

 3---5---7---|
 5---7---9---|
 ------------|   play 2 times
 ------------|
 ------------|
 ------------|

 Pre-chourse:

 0--3--232---02-32-0--2333-|
 0--3--232---02-32-0--2333-|
 0--3--232---02-32-0--2333-|
 --------------------------|    Rhythm plays 2 times, lead plays this
 --------------------------|    throughout the chourse
 --------------------------|

Chourse: (Rhythm guitar only)

 --------------------------|
 --------------------------|
 --------------------------|
 --------------------------|
 --------------------------|
 0--3--232---02-32-0--2333-|

 (after the chourse guitars play the pre-chourse 4 times)

verse 2

 3---5---7---|
 5---7---9---|
 ------------|
 ------------|
 ------------| play 2 times
 ------------|

 Pre-chourse:

 0--3--232---02-32-0--2333-|
 0--3--232---02-32-0--2333-|
 0--3--232---02-32-0--2333-|
 --------------------------|
 --------------------------|
 --------------------------|

 Chourse: (Rhythm only)

 --------------------------|
 --------------------------|
 --------------------------|  Play 4 times
 --------------------------|
 --------------------------|
 0--3--232---02-32-0--2333-|

 (play pre-chourse 4 times)

 (the lead guitar stops playing here, and rhythm plays solo as the chourse)

Rhythm Solo

 --------------------------|
 --------------------------|
 --------------------------|
 --------------------------| played until the last sentance in the vocals is
 --------------------------|  sung
 0--3--232---02-32-0--2333-|

 for lead guitar, after the verse of the Rhythm guitarists solo playing is  done lead
goes into playing this:

 0--3--232---02-32-0--2333-|
 0--3--232---02-32-0--2333-|
 0--3--232---02-32-0--2333-|
 --------------------------|
 --------------------------|    played till the last sentence of the song
 --------------------------|

 then for the outro both guitars play this 2 times:

 0--3--232---02-32-0--2333-|
 0--3--232---02-32-0--2333-|
 0--3--232---02-32-0--2333-|
 --------------------------|
 --------------------------|
 --------------------------|