Misc. Unsigned Bands - Suho Grlo Nos - Zlobna Vila Text Guitar Tab

Learn the song with the online tablature player
-------------------------------------------------------------------------------------------|
------------------5----------------------5------------------------5------------------------|
-------------------------------------------------------------------------------------------|
-----3------------------------3-----------------------3------------------------------------|
-----3------------3-----------3----------3------------3-----------3------------------------|
-----1------------------------1-----------------------1------------------------------------|
Sprite-vodku je pila
Miss šanka je bila
Tad šarmom joj prišo
A pljuskom sam sišo

--------------------------------------------------------------------------------------------|
--------------------------------------------------------------------------------------------|
--------------------------------------------------------------------------------------------|
--------------------------------------------------------------------------------------------|
---3-3-3-3----------------------------------------------------8-8-8--0----------------------|
---------------------------0-0-0----3--5-5-5-5----------------------------------------------|
A ja sam htio samo biti mio
Dok ti si bila hladna zlobna vila
A ja sam htio biti mio
Dok ti si bila....Zlobna vila

--------------------------------------------------------------------------------------------|
--------5-5--5-5-5----------------10-10-----------------------------------------------------|
--------------------------------------------------------------------------------------------|
--------------------------------------------------------------------------------------------|
--------3-3--3-3-3----------------8--8------------------------------------------------------|
--------------------------------------------------------------------------------------------|  x8