Misc. Unsigned Bands - Suicide Skaters - Name In The Blood Text Guitar Tab

Learn song with the online tabulature player
\/(Verses)\/
E|----------------------------|0|
B|----------------------------| |
G|----------------------------| |  (repeat x3)
D|----------------------------| |
A|-2-2-2-3-3-3-10-10-10-6-7-6-| |
E|-0-0-0-1-1-1-8--8--8--4-5-4-|0|

             (chours)
E|----------------------------|0|
B|----------------------------| |
G|----------------------------| |   (repeat x2)
D|-6-3--------1-3-------------| |
A|-6-3-3-6-1-3----------------| |
E|-4-1-1-4--------------------|0|



Verse

Chourus

Verse 

Solo   (do this as fast as hell and the 2last strings are the olny strings use
and the frets 15 and up are the only frets played) so with that do whatever

Chourus

www.myspace.com/suicideskaters